ISO-10303-21;
HEADER;
FILE_DESCRIPTION(('STEP AP214'),'1');
FILE_NAME('cctmp_FE948E63-F1E2-4A63-B82D-EBDA9E9C8B04_2020_1_20_11_1_16_766..stp','2020-01-20T10:01:17',('Bosch Rexroth AG'),('CADClick - www.CADClick.com'),'Spatial InterOp 3D',' ','unknown authorization - (Healing Option Enabled)');
FILE_SCHEMA(('AUTOMOTIVE_DESIGN'));
ENDSEC;
DATA;
#1=MECHANICAL_DESIGN_GEOMETRIC_PRESENTATION_REPRESENTATION(' ',(#10,#11,#12,#13,#14,#15),#6);
#2=PRODUCT_DEFINITION_CONTEXT('',#16,'design');
#3=APPLICATION_PROTOCOL_DEFINITION('INTERNATIONAL STANDARD','automotive_design',1994,#16);
#4=PRODUCT_CATEGORY_RELATIONSHIP('NONE','NONE',#17,#18);
#5=SHAPE_DEFINITION_REPRESENTATION(#19,#20);
#6= (GEOMETRIC_REPRESENTATION_CONTEXT(3)GLOBAL_UNCERTAINTY_ASSIGNED_CONTEXT((#23))GLOBAL_UNIT_ASSIGNED_CONTEXT((#25,#26,#27))REPRESENTATION_CONTEXT('NONE','WORKSPACE'));
#10=STYLED_ITEM('',(#29),#30);
#11=STYLED_ITEM('',(#31),#32);
#12=STYLED_ITEM('',(#33),#34);
#13=STYLED_ITEM('',(#35),#36);
#14=STYLED_ITEM('',(#37),#38);
#15=STYLED_ITEM('',(#39),#40);
#16=APPLICATION_CONTEXT(' ');
#17=PRODUCT_CATEGORY('part','NONE');
#18=PRODUCT_RELATED_PRODUCT_CATEGORY('detail',' ',(#41));
#19=PRODUCT_DEFINITION_SHAPE('NONE','NONE',#42);
#20=ADVANCED_BREP_SHAPE_REPRESENTATION('2020_01_20__11-01-16-766',(#40,#43),#6);
#23=UNCERTAINTY_MEASURE_WITH_UNIT(LENGTH_MEASURE(1.0E-006),#25,'','');
#25= (CONVERSION_BASED_UNIT('MILLIMETRE',#46)LENGTH_UNIT()NAMED_UNIT(#49));
#26= (NAMED_UNIT(#51)PLANE_ANGLE_UNIT()SI_UNIT($,.RADIAN.));
#27= (NAMED_UNIT(#51)SOLID_ANGLE_UNIT()SI_UNIT($,.STERADIAN.));
#29=PRESENTATION_STYLE_ASSIGNMENT((#57));
#30=ADVANCED_FACE('',(#58),#59,.T.);
#31=PRESENTATION_STYLE_ASSIGNMENT((#60));
#32=ADVANCED_FACE('',(#61),#62,.T.);
#33=PRESENTATION_STYLE_ASSIGNMENT((#63));
#34=ADVANCED_FACE('',(#64),#65,.T.);
#35=PRESENTATION_STYLE_ASSIGNMENT((#66));
#36=ADVANCED_FACE('',(#67),#68,.T.);
#37=PRESENTATION_STYLE_ASSIGNMENT((#69));
#38=ADVANCED_FACE('',(#70),#71,.F.);
#39=PRESENTATION_STYLE_ASSIGNMENT((#72));
#40=MANIFOLD_SOLID_BREP('2020_01_20__11-01-16-766',#73);
#41=PRODUCT('2020_01_20__11-01-16-766','','PART--DESC',(#74));
#42=PRODUCT_DEFINITION('','NONE',#75,#2);
#43=AXIS2_PLACEMENT_3D('',#76,#77,#78);
#46=LENGTH_MEASURE_WITH_UNIT(LENGTH_MEASURE(1.0),#79);
#49=DIMENSIONAL_EXPONENTS(1.0,0.0,0.0,0.0,0.0,0.0,0.0);
#51=DIMENSIONAL_EXPONENTS(0.0,0.0,0.0,0.0,0.0,0.0,0.0);
#57=SURFACE_STYLE_USAGE(.BOTH.,#80);
#58=FACE_OUTER_BOUND('',#81,.T.);
#59=CYLINDRICAL_SURFACE('',#82,14.0000000001);
#60=SURFACE_STYLE_USAGE(.BOTH.,#83);
#61=FACE_OUTER_BOUND('',#84,.T.);
#62=CYLINDRICAL_SURFACE('',#85,14.0000000001);
#63=SURFACE_STYLE_USAGE(.BOTH.,#86);
#64=FACE_OUTER_BOUND('',#87,.T.);
#65=PLANE('',#88);
#66=SURFACE_STYLE_USAGE(.BOTH.,#89);
#67=FACE_OUTER_BOUND('',#90,.T.);
#68=PLANE('',#91);
#69=SURFACE_STYLE_USAGE(.BOTH.,#92);
#70=FACE_OUTER_BOUND('',#93,.T.);
#71=PLANE('',#94);
#72=SURFACE_STYLE_USAGE(.BOTH.,#95);
#73=CLOSED_SHELL('',(#30,#32,#34,#36,#38));
#74=PRODUCT_CONTEXT('',#16,'mechanical');
#75=PRODUCT_DEFINITION_FORMATION_WITH_SPECIFIED_SOURCE(' ','NONE',#41,.NOT_KNOWN.);
#76=CARTESIAN_POINT('',(0.0,0.0,0.0));
#77=DIRECTION('',(0.0,0.0,1.0));
#78=DIRECTION('',(1.0,0.0,0.0));
#79= (NAMED_UNIT(#49)LENGTH_UNIT()SI_UNIT(.MILLI.,.METRE.));
#80=SURFACE_SIDE_STYLE('',(#97));
#81=EDGE_LOOP('',(#98,#99,#100,#101));
#82=AXIS2_PLACEMENT_3D('',#102,#103,#104);
#83=SURFACE_SIDE_STYLE('',(#105));
#84=EDGE_LOOP('',(#106,#107,#108,#109));
#85=AXIS2_PLACEMENT_3D('',#110,#111,#112);
#86=SURFACE_SIDE_STYLE('',(#113));
#87=EDGE_LOOP('',(#114,#115,#116,#117));
#88=AXIS2_PLACEMENT_3D('',#118,#119,#120);
#89=SURFACE_SIDE_STYLE('',(#121));
#90=EDGE_LOOP('',(#122,#123,#124));
#91=AXIS2_PLACEMENT_3D('',#125,#126,#127);
#92=SURFACE_SIDE_STYLE('',(#128));
#93=EDGE_LOOP('',(#129,#130,#131));
#94=AXIS2_PLACEMENT_3D('',#132,#133,#134);
#95=SURFACE_SIDE_STYLE('',(#135));
#97=SURFACE_STYLE_FILL_AREA(#136);
#98=ORIENTED_EDGE('',*,*,#137,.F.);
#99=ORIENTED_EDGE('',*,*,#138,.T.);
#100=ORIENTED_EDGE('',*,*,#139,.F.);
#101=ORIENTED_EDGE('',*,*,#140,.T.);
#102=CARTESIAN_POINT('',(0.0,-5.00000041370186E-009,-1.00001784630877E-010));
#103=DIRECTION('',(1.0,0.0,0.0));
#104=DIRECTION('',(0.0,0.765986092493888,-0.642857142844306));
#105=SURFACE_STYLE_FILL_AREA(#141);
#106=ORIENTED_EDGE('',*,*,#137,.T.);
#107=ORIENTED_EDGE('',*,*,#142,.T.);
#108=ORIENTED_EDGE('',*,*,#143,.T.);
#109=ORIENTED_EDGE('',*,*,#144,.T.);
#110=CARTESIAN_POINT('',(0.0,-5.00000041370186E-009,-1.00001784630877E-010));
#111=DIRECTION('',(1.0,0.0,0.0));
#112=DIRECTION('',(0.0,0.765986092493888,-0.642857142844306));
#113=SURFACE_STYLE_FILL_AREA(#145);
#114=ORIENTED_EDGE('',*,*,#146,.T.);
#115=ORIENTED_EDGE('',*,*,#143,.F.);
#116=ORIENTED_EDGE('',*,*,#147,.F.);
#117=ORIENTED_EDGE('',*,*,#139,.T.);
#118=CARTESIAN_POINT('',(0.0,-5.00000041370186E-009,-9.0));
#119=DIRECTION('',(0.0,0.0,-1.0));
#120=DIRECTION('',(0.0,1.0,0.0));
#121=SURFACE_STYLE_FILL_AREA(#148);
#122=ORIENTED_EDGE('',*,*,#144,.F.);
#123=ORIENTED_EDGE('',*,*,#146,.F.);
#124=ORIENTED_EDGE('',*,*,#138,.F.);
#125=CARTESIAN_POINT('',(1000.0,-4.9999992879124E-009,0.27370176783116));
#126=DIRECTION('',(1.0,0.0,0.0));
#127=DIRECTION('',(0.0,1.0,0.0));
#128=SURFACE_STYLE_FILL_AREA(#149);
#129=ORIENTED_EDGE('',*,*,#147,.T.);
#130=ORIENTED_EDGE('',*,*,#142,.F.);
#131=ORIENTED_EDGE('',*,*,#140,.F.);
#132=CARTESIAN_POINT('',(0.0,-4.9999992879124E-009,0.27370176783116));
#133=DIRECTION('',(1.0,0.0,0.0));
#134=DIRECTION('',(0.0,1.0,0.0));
#135=SURFACE_STYLE_FILL_AREA(#150);
#136=FILL_AREA_STYLE('',(#151));
#137=EDGE_CURVE('',#152,#153,#154,.T.);
#138=EDGE_CURVE('',#152,#155,#156,.T.);
#139=EDGE_CURVE('',#157,#155,#158,.T.);
#140=EDGE_CURVE('',#157,#153,#159,.T.);
#141=FILL_AREA_STYLE('',(#160));
#142=EDGE_CURVE('',#153,#161,#162,.T.);
#143=EDGE_CURVE('',#161,#163,#164,.T.);
#144=EDGE_CURVE('',#163,#152,#165,.T.);
#145=FILL_AREA_STYLE('',(#166));
#146=EDGE_CURVE('',#155,#163,#167,.T.);
#147=EDGE_CURVE('',#157,#161,#168,.T.);
#148=FILL_AREA_STYLE('',(#169));
#149=FILL_AREA_STYLE('',(#170));
#150=FILL_AREA_STYLE('',(#171));
#151=FILL_AREA_STYLE_COLOUR('',#172);
#152=VERTEX_POINT('',#173);
#153=VERTEX_POINT('',#174);
#154=LINE('',#175,#176);
#155=VERTEX_POINT('',#177);
#156=CIRCLE('',#178,14.0000000001);
#157=VERTEX_POINT('',#179);
#158=LINE('',#180,#181);
#159=CIRCLE('',#182,14.0000000001);
#160=FILL_AREA_STYLE_COLOUR('',#183);
#161=VERTEX_POINT('',#184);
#162=CIRCLE('',#185,14.0000000001);
#163=VERTEX_POINT('',#186);
#164=LINE('',#187,#188);
#165=CIRCLE('',#189,14.0000000001);
#166=FILL_AREA_STYLE_COLOUR('',#190);
#167=LINE('',#191,#192);
#168=LINE('',#193,#194);
#169=FILL_AREA_STYLE_COLOUR('',#195);
#170=FILL_AREA_STYLE_COLOUR('',#196);
#171=FILL_AREA_STYLE_COLOUR('',#197);
#172=COLOUR_RGB('',0.509803950786591,0.509803950786591,0.588235318660736);
#173=CARTESIAN_POINT('',(1000.0,-10.723805299991,8.99999999978457));
#174=CARTESIAN_POINT('',(0.0,-10.723805299991,8.99999999978457));
#175=CARTESIAN_POINT('',(0.0,-10.723805299991,8.99999999978457));
#176=VECTOR('',#198,1.0);
#177=CARTESIAN_POINT('',(1000.0,10.72380529,-9.0));
#178=AXIS2_PLACEMENT_3D('',#199,#200,#201);
#179=CARTESIAN_POINT('',(0.0,10.72380529,-9.0));
#180=CARTESIAN_POINT('',(0.0,10.72380529,-9.0));
#181=VECTOR('',#202,1.0);
#182=AXIS2_PLACEMENT_3D('',#203,#204,#205);
#183=COLOUR_RGB('',0.509803950786591,0.509803950786591,0.588235318660736);
#184=CARTESIAN_POINT('',(0.0,-10.7238053,-9.0));
#185=AXIS2_PLACEMENT_3D('',#206,#207,#208);
#186=CARTESIAN_POINT('',(1000.0,-10.7238053,-9.0));
#187=CARTESIAN_POINT('',(0.0,-10.7238053,-9.0));
#188=VECTOR('',#209,1.0);
#189=AXIS2_PLACEMENT_3D('',#210,#211,#212);
#190=COLOUR_RGB('',0.509803950786591,0.509803950786591,0.588235318660736);
#191=CARTESIAN_POINT('',(1000.0,10.72380529,-9.0));
#192=VECTOR('',#213,1.0);
#193=CARTESIAN_POINT('',(0.0,10.72380529,-9.0));
#194=VECTOR('',#214,1.0);
#195=COLOUR_RGB('',0.509803950786591,0.509803950786591,0.588235318660736);
#196=COLOUR_RGB('',0.509803950786591,0.509803950786591,0.588235318660736);
#197=COLOUR_RGB('',0.509803950786591,0.509803950786591,0.588235318660736);
#198=DIRECTION('',(-1.0,-0.0,-0.0));
#199=CARTESIAN_POINT('',(1000.0,-5.00000041370186E-009,-1.00001784630877E-010));
#200=DIRECTION('',(-1.0,0.0,0.0));
#201=DIRECTION('',(0.0,0.765986092493888,-0.642857142844306));
#202=DIRECTION('',(1.0,0.0,0.0));
#203=CARTESIAN_POINT('',(0.0,-5.00000041370186E-009,-1.00001784630877E-010));
#204=DIRECTION('',(1.0,0.0,0.0));
#205=DIRECTION('',(0.0,0.765986092493888,-0.642857142844306));
#206=CARTESIAN_POINT('',(0.0,-5.00000041370186E-009,-1.00001784630877E-010));
#207=DIRECTION('',(1.0,0.0,0.0));
#208=DIRECTION('',(0.0,0.765986092493888,-0.642857142844306));
#209=DIRECTION('',(1.0,0.0,0.0));
#210=CARTESIAN_POINT('',(1000.0,-5.00000041370186E-009,-1.00001784630877E-010));
#211=DIRECTION('',(-1.0,0.0,0.0));
#212=DIRECTION('',(0.0,0.765986092493888,-0.642857142844306));
#213=DIRECTION('',(0.0,-1.0,0.0));
#214=DIRECTION('',(0.0,-1.0,0.0));
ENDSEC;
END-ISO-10303-21;
