ISO-10303-21;
HEADER;
FILE_DESCRIPTION(('STEP AP214'),'1');
FILE_NAME('cctmp_29928990-D05B-491C-8481-D40533E148C8_2020_1_20_11_11_7_593..stp','2020-01-20T10:11:07',('Bosch Rexroth AG'),('CADClick - www.CADClick.com'),'Spatial InterOp 3D',' ','unknown authorization - (Healing Option Enabled)');
FILE_SCHEMA(('AUTOMOTIVE_DESIGN'));
ENDSEC;
DATA;
#1=MECHANICAL_DESIGN_GEOMETRIC_PRESENTATION_REPRESENTATION(' ',(#10,#11,#12,#13,#14,#15,#16,#17,#18),#6);
#2=PRODUCT_DEFINITION_CONTEXT('',#19,'design');
#3=APPLICATION_PROTOCOL_DEFINITION('INTERNATIONAL STANDARD','automotive_design',1994,#19);
#4=PRODUCT_CATEGORY_RELATIONSHIP('NONE','NONE',#20,#21);
#5=SHAPE_DEFINITION_REPRESENTATION(#22,#23);
#6= (GEOMETRIC_REPRESENTATION_CONTEXT(3)GLOBAL_UNCERTAINTY_ASSIGNED_CONTEXT((#26))GLOBAL_UNIT_ASSIGNED_CONTEXT((#28,#29,#30))REPRESENTATION_CONTEXT('NONE','WORKSPACE'));
#10=STYLED_ITEM('',(#32),#33);
#11=STYLED_ITEM('',(#34),#35);
#12=STYLED_ITEM('',(#36),#37);
#13=STYLED_ITEM('',(#38),#39);
#14=STYLED_ITEM('',(#40),#41);
#15=STYLED_ITEM('',(#42),#43);
#16=STYLED_ITEM('',(#44),#45);
#17=STYLED_ITEM('',(#46),#47);
#18=STYLED_ITEM('',(#48),#49);
#19=APPLICATION_CONTEXT(' ');
#20=PRODUCT_CATEGORY('part','NONE');
#21=PRODUCT_RELATED_PRODUCT_CATEGORY('detail',' ',(#50));
#22=PRODUCT_DEFINITION_SHAPE('NONE','NONE',#51);
#23=ADVANCED_BREP_SHAPE_REPRESENTATION('2020_01_20__11-11-07-593',(#49,#52),#6);
#26=UNCERTAINTY_MEASURE_WITH_UNIT(LENGTH_MEASURE(1.0E-006),#28,'','');
#28= (CONVERSION_BASED_UNIT('MILLIMETRE',#55)LENGTH_UNIT()NAMED_UNIT(#58));
#29= (NAMED_UNIT(#60)PLANE_ANGLE_UNIT()SI_UNIT($,.RADIAN.));
#30= (NAMED_UNIT(#60)SOLID_ANGLE_UNIT()SI_UNIT($,.STERADIAN.));
#32=PRESENTATION_STYLE_ASSIGNMENT((#66));
#33=ADVANCED_FACE('',(#67),#68,.T.);
#34=PRESENTATION_STYLE_ASSIGNMENT((#69));
#35=ADVANCED_FACE('',(#70),#71,.T.);
#36=PRESENTATION_STYLE_ASSIGNMENT((#72));
#37=ADVANCED_FACE('',(#73),#74,.T.);
#38=PRESENTATION_STYLE_ASSIGNMENT((#75));
#39=ADVANCED_FACE('',(#76),#77,.T.);
#40=PRESENTATION_STYLE_ASSIGNMENT((#78));
#41=ADVANCED_FACE('',(#79),#80,.T.);
#42=PRESENTATION_STYLE_ASSIGNMENT((#81));
#43=ADVANCED_FACE('',(#82),#83,.T.);
#44=PRESENTATION_STYLE_ASSIGNMENT((#84));
#45=ADVANCED_FACE('',(#85),#86,.F.);
#46=PRESENTATION_STYLE_ASSIGNMENT((#87));
#47=ADVANCED_FACE('',(#88),#89,.T.);
#48=PRESENTATION_STYLE_ASSIGNMENT((#90));
#49=MANIFOLD_SOLID_BREP('2020_01_20__11-11-07-593',#91);
#50=PRODUCT('2020_01_20__11-11-07-593','','PART--DESC',(#92));
#51=PRODUCT_DEFINITION('','NONE',#93,#2);
#52=AXIS2_PLACEMENT_3D('',#94,#95,#96);
#55=LENGTH_MEASURE_WITH_UNIT(LENGTH_MEASURE(1.0),#97);
#58=DIMENSIONAL_EXPONENTS(1.0,0.0,0.0,0.0,0.0,0.0,0.0);
#60=DIMENSIONAL_EXPONENTS(0.0,0.0,0.0,0.0,0.0,0.0,0.0);
#66=SURFACE_STYLE_USAGE(.BOTH.,#98);
#67=FACE_OUTER_BOUND('',#99,.T.);
#68=PLANE('',#100);
#69=SURFACE_STYLE_USAGE(.BOTH.,#101);
#70=FACE_OUTER_BOUND('',#102,.T.);
#71=PLANE('',#103);
#72=SURFACE_STYLE_USAGE(.BOTH.,#104);
#73=FACE_OUTER_BOUND('',#105,.T.);
#74=PLANE('',#106);
#75=SURFACE_STYLE_USAGE(.BOTH.,#107);
#76=FACE_OUTER_BOUND('',#108,.T.);
#77=PLANE('',#109);
#78=SURFACE_STYLE_USAGE(.BOTH.,#110);
#79=FACE_OUTER_BOUND('',#111,.T.);
#80=PLANE('',#112);
#81=SURFACE_STYLE_USAGE(.BOTH.,#113);
#82=FACE_OUTER_BOUND('',#114,.T.);
#83=PLANE('',#115);
#84=SURFACE_STYLE_USAGE(.BOTH.,#116);
#85=FACE_OUTER_BOUND('',#117,.T.);
#86=PLANE('',#118);
#87=SURFACE_STYLE_USAGE(.BOTH.,#119);
#88=FACE_OUTER_BOUND('',#120,.T.);
#89=PLANE('',#121);
#90=SURFACE_STYLE_USAGE(.BOTH.,#122);
#91=CLOSED_SHELL('',(#33,#35,#37,#39,#41,#43,#45,#47));
#92=PRODUCT_CONTEXT('',#19,'mechanical');
#93=PRODUCT_DEFINITION_FORMATION_WITH_SPECIFIED_SOURCE(' ','NONE',#50,.NOT_KNOWN.);
#94=CARTESIAN_POINT('',(0.0,0.0,0.0));
#95=DIRECTION('',(0.0,0.0,1.0));
#96=DIRECTION('',(1.0,0.0,0.0));
#97= (NAMED_UNIT(#58)LENGTH_UNIT()SI_UNIT(.MILLI.,.METRE.));
#98=SURFACE_SIDE_STYLE('',(#124));
#99=EDGE_LOOP('',(#125,#126,#127,#128));
#100=AXIS2_PLACEMENT_3D('',#129,#130,#131);
#101=SURFACE_SIDE_STYLE('',(#132));
#102=EDGE_LOOP('',(#133,#134,#135,#136));
#103=AXIS2_PLACEMENT_3D('',#137,#138,#139);
#104=SURFACE_SIDE_STYLE('',(#140));
#105=EDGE_LOOP('',(#141,#142,#143,#144));
#106=AXIS2_PLACEMENT_3D('',#145,#146,#147);
#107=SURFACE_SIDE_STYLE('',(#148));
#108=EDGE_LOOP('',(#149,#150,#151,#152));
#109=AXIS2_PLACEMENT_3D('',#153,#154,#155);
#110=SURFACE_SIDE_STYLE('',(#156));
#111=EDGE_LOOP('',(#157,#158,#159,#160));
#112=AXIS2_PLACEMENT_3D('',#161,#162,#163);
#113=SURFACE_SIDE_STYLE('',(#164));
#114=EDGE_LOOP('',(#165,#166,#167,#168));
#115=AXIS2_PLACEMENT_3D('',#169,#170,#171);
#116=SURFACE_SIDE_STYLE('',(#172));
#117=EDGE_LOOP('',(#173,#174,#175,#176,#177,#178));
#118=AXIS2_PLACEMENT_3D('',#179,#180,#181);
#119=SURFACE_SIDE_STYLE('',(#182));
#120=EDGE_LOOP('',(#183,#184,#185,#186,#187,#188));
#121=AXIS2_PLACEMENT_3D('',#189,#190,#191);
#122=SURFACE_SIDE_STYLE('',(#192));
#124=SURFACE_STYLE_FILL_AREA(#193);
#125=ORIENTED_EDGE('',*,*,#194,.T.);
#126=ORIENTED_EDGE('',*,*,#195,.F.);
#127=ORIENTED_EDGE('',*,*,#196,.T.);
#128=ORIENTED_EDGE('',*,*,#197,.T.);
#129=CARTESIAN_POINT('',(0.0,50.0,50.0));
#130=DIRECTION('',(0.0,-1.0,0.0));
#131=DIRECTION('',(0.0,0.0,-1.0));
#132=SURFACE_STYLE_FILL_AREA(#198);
#133=ORIENTED_EDGE('',*,*,#199,.T.);
#134=ORIENTED_EDGE('',*,*,#200,.F.);
#135=ORIENTED_EDGE('',*,*,#201,.T.);
#136=ORIENTED_EDGE('',*,*,#195,.T.);
#137=CARTESIAN_POINT('',(0.0,53.375,58.3700681));
#138=DIRECTION('',(0.0,0.169349740533428,0.98555601838823));
#139=DIRECTION('',(0.0,-0.98555601838823,0.169349740533428));
#140=SURFACE_STYLE_FILL_AREA(#202);
#141=ORIENTED_EDGE('',*,*,#203,.T.);
#142=ORIENTED_EDGE('',*,*,#204,.F.);
#143=ORIENTED_EDGE('',*,*,#205,.T.);
#144=ORIENTED_EDGE('',*,*,#200,.T.);
#145=CARTESIAN_POINT('',(0.0,60.125,58.3700681));
#146=DIRECTION('',(0.0,-0.169349740533428,0.98555601838823));
#147=DIRECTION('',(0.0,-0.98555601838823,-0.169349740533428));
#148=SURFACE_STYLE_FILL_AREA(#206);
#149=ORIENTED_EDGE('',*,*,#207,.T.);
#150=ORIENTED_EDGE('',*,*,#208,.F.);
#151=ORIENTED_EDGE('',*,*,#209,.T.);
#152=ORIENTED_EDGE('',*,*,#204,.T.);
#153=CARTESIAN_POINT('',(0.0,63.5,50.0));
#154=DIRECTION('',(0.0,1.0,0.0));
#155=DIRECTION('',(0.0,0.0,1.0));
#156=SURFACE_STYLE_FILL_AREA(#210);
#157=ORIENTED_EDGE('',*,*,#211,.T.);
#158=ORIENTED_EDGE('',*,*,#212,.F.);
#159=ORIENTED_EDGE('',*,*,#213,.T.);
#160=ORIENTED_EDGE('',*,*,#208,.T.);
#161=CARTESIAN_POINT('',(0.0,60.125,41.62993023));
#162=DIRECTION('',(0.0,-0.169349266851637,-0.985556099781648));
#163=DIRECTION('',(0.0,0.985556099781648,-0.169349266851637));
#164=SURFACE_STYLE_FILL_AREA(#214);
#165=ORIENTED_EDGE('',*,*,#215,.T.);
#166=ORIENTED_EDGE('',*,*,#197,.F.);
#167=ORIENTED_EDGE('',*,*,#216,.T.);
#168=ORIENTED_EDGE('',*,*,#212,.T.);
#169=CARTESIAN_POINT('',(0.0,53.375,41.62993023));
#170=DIRECTION('',(0.0,0.169349266851637,-0.985556099781648));
#171=DIRECTION('',(0.0,0.985556099781648,0.169349266851637));
#172=SURFACE_STYLE_FILL_AREA(#217);
#173=ORIENTED_EDGE('',*,*,#216,.F.);
#174=ORIENTED_EDGE('',*,*,#196,.F.);
#175=ORIENTED_EDGE('',*,*,#201,.F.);
#176=ORIENTED_EDGE('',*,*,#205,.F.);
#177=ORIENTED_EDGE('',*,*,#209,.F.);
#178=ORIENTED_EDGE('',*,*,#213,.F.);
#179=CARTESIAN_POINT('',(0.0,56.75,49.9999997878537));
#180=DIRECTION('',(1.0,0.0,0.0));
#181=DIRECTION('',(0.0,-1.0,0.0));
#182=SURFACE_STYLE_FILL_AREA(#218);
#183=ORIENTED_EDGE('',*,*,#194,.F.);
#184=ORIENTED_EDGE('',*,*,#215,.F.);
#185=ORIENTED_EDGE('',*,*,#211,.F.);
#186=ORIENTED_EDGE('',*,*,#207,.F.);
#187=ORIENTED_EDGE('',*,*,#203,.F.);
#188=ORIENTED_EDGE('',*,*,#199,.F.);
#189=CARTESIAN_POINT('',(1000.0,56.75,49.9999997878537));
#190=DIRECTION('',(1.0,0.0,0.0));
#191=DIRECTION('',(0.0,-1.0,0.0));
#192=SURFACE_STYLE_FILL_AREA(#219);
#193=FILL_AREA_STYLE('',(#220));
#194=EDGE_CURVE('',#221,#222,#223,.T.);
#195=EDGE_CURVE('',#224,#222,#225,.T.);
#196=EDGE_CURVE('',#224,#226,#227,.T.);
#197=EDGE_CURVE('',#226,#221,#228,.T.);
#198=FILL_AREA_STYLE('',(#229));
#199=EDGE_CURVE('',#222,#230,#231,.T.);
#200=EDGE_CURVE('',#232,#230,#233,.T.);
#201=EDGE_CURVE('',#232,#224,#234,.T.);
#202=FILL_AREA_STYLE('',(#235));
#203=EDGE_CURVE('',#230,#236,#237,.T.);
#204=EDGE_CURVE('',#238,#236,#239,.T.);
#205=EDGE_CURVE('',#238,#232,#240,.T.);
#206=FILL_AREA_STYLE('',(#241));
#207=EDGE_CURVE('',#236,#242,#243,.T.);
#208=EDGE_CURVE('',#244,#242,#245,.T.);
#209=EDGE_CURVE('',#244,#238,#246,.T.);
#210=FILL_AREA_STYLE('',(#247));
#211=EDGE_CURVE('',#242,#248,#249,.T.);
#212=EDGE_CURVE('',#250,#248,#251,.T.);
#213=EDGE_CURVE('',#250,#244,#252,.T.);
#214=FILL_AREA_STYLE('',(#253));
#215=EDGE_CURVE('',#248,#221,#254,.T.);
#216=EDGE_CURVE('',#226,#250,#255,.T.);
#217=FILL_AREA_STYLE('',(#256));
#218=FILL_AREA_STYLE('',(#257));
#219=FILL_AREA_STYLE('',(#258));
#220=FILL_AREA_STYLE_COLOUR('',#259);
#221=VERTEX_POINT('',#260);
#222=VERTEX_POINT('',#261);
#223=LINE('',#262,#263);
#224=VERTEX_POINT('',#264);
#225=LINE('',#265,#266);
#226=VERTEX_POINT('',#267);
#227=LINE('',#268,#269);
#228=LINE('',#270,#271);
#229=FILL_AREA_STYLE_COLOUR('',#272);
#230=VERTEX_POINT('',#273);
#231=LINE('',#274,#275);
#232=VERTEX_POINT('',#276);
#233=LINE('',#277,#278);
#234=LINE('',#279,#280);
#235=FILL_AREA_STYLE_COLOUR('',#281);
#236=VERTEX_POINT('',#282);
#237=LINE('',#283,#284);
#238=VERTEX_POINT('',#285);
#239=LINE('',#286,#287);
#240=LINE('',#288,#289);
#241=FILL_AREA_STYLE_COLOUR('',#290);
#242=VERTEX_POINT('',#291);
#243=LINE('',#292,#293);
#244=VERTEX_POINT('',#294);
#245=LINE('',#295,#296);
#246=LINE('',#297,#298);
#247=FILL_AREA_STYLE_COLOUR('',#299);
#248=VERTEX_POINT('',#300);
#249=LINE('',#301,#302);
#250=VERTEX_POINT('',#303);
#251=LINE('',#304,#305);
#252=LINE('',#306,#307);
#253=FILL_AREA_STYLE_COLOUR('',#308);
#254=LINE('',#309,#310);
#255=LINE('',#311,#312);
#256=FILL_AREA_STYLE_COLOUR('',#313);
#257=FILL_AREA_STYLE_COLOUR('',#314);
#258=FILL_AREA_STYLE_COLOUR('',#315);
#259=COLOUR_RGB('',0.509803950786591,0.509803950786591,0.588235318660736);
#260=CARTESIAN_POINT('',(1000.0,50.0,41.05));
#261=CARTESIAN_POINT('',(1000.0,50.0,58.95));
#262=CARTESIAN_POINT('',(1000.0,50.0,58.95));
#263=VECTOR('',#316,1.0);
#264=CARTESIAN_POINT('',(0.0,50.0,58.95));
#265=CARTESIAN_POINT('',(0.0,50.0,58.95));
#266=VECTOR('',#317,1.0);
#267=CARTESIAN_POINT('',(0.0,50.0,41.05));
#268=CARTESIAN_POINT('',(0.0,50.0,58.95));
#269=VECTOR('',#318,1.0);
#270=CARTESIAN_POINT('',(0.0,50.0,41.05));
#271=VECTOR('',#319,1.0);
#272=COLOUR_RGB('',0.509803950786591,0.509803950786591,0.588235318660736);
#273=CARTESIAN_POINT('',(1000.0,56.75,57.7901362));
#274=CARTESIAN_POINT('',(1000.0,56.75,57.7901362));
#275=VECTOR('',#320,1.0);
#276=CARTESIAN_POINT('',(0.0,56.75,57.7901362));
#277=CARTESIAN_POINT('',(0.0,56.75,57.7901362));
#278=VECTOR('',#321,1.0);
#279=CARTESIAN_POINT('',(0.0,56.75,57.7901362));
#280=VECTOR('',#322,1.0);
#281=COLOUR_RGB('',0.509803950786591,0.509803950786591,0.588235318660736);
#282=CARTESIAN_POINT('',(1000.0,63.5,58.95));
#283=CARTESIAN_POINT('',(1000.0,63.5,58.95));
#284=VECTOR('',#323,1.0);
#285=CARTESIAN_POINT('',(0.0,63.5,58.95));
#286=CARTESIAN_POINT('',(0.0,63.5,58.95));
#287=VECTOR('',#324,1.0);
#288=CARTESIAN_POINT('',(0.0,63.5,58.95));
#289=VECTOR('',#325,1.0);
#290=COLOUR_RGB('',0.509803950786591,0.509803950786591,0.588235318660736);
#291=CARTESIAN_POINT('',(1000.0,63.5,41.05));
#292=CARTESIAN_POINT('',(1000.0,63.5,41.05));
#293=VECTOR('',#326,1.0);
#294=CARTESIAN_POINT('',(0.0,63.5,41.05));
#295=CARTESIAN_POINT('',(0.0,63.5,41.05));
#296=VECTOR('',#327,1.0);
#297=CARTESIAN_POINT('',(0.0,63.5,41.05));
#298=VECTOR('',#328,1.0);
#299=COLOUR_RGB('',0.509803950786591,0.509803950786591,0.588235318660736);
#300=CARTESIAN_POINT('',(1000.0,56.75,42.20986046));
#301=CARTESIAN_POINT('',(1000.0,56.75,42.20986046));
#302=VECTOR('',#329,1.0);
#303=CARTESIAN_POINT('',(0.0,56.75,42.20986046));
#304=CARTESIAN_POINT('',(0.0,56.75,42.20986046));
#305=VECTOR('',#330,1.0);
#306=CARTESIAN_POINT('',(0.0,56.75,42.20986046));
#307=VECTOR('',#331,1.0);
#308=COLOUR_RGB('',0.509803950786591,0.509803950786591,0.588235318660736);
#309=CARTESIAN_POINT('',(1000.0,50.0,41.05));
#310=VECTOR('',#332,1.0);
#311=CARTESIAN_POINT('',(0.0,50.0,41.05));
#312=VECTOR('',#333,1.0);
#313=COLOUR_RGB('',0.509803950786591,0.509803950786591,0.588235318660736);
#314=COLOUR_RGB('',0.509803950786591,0.509803950786591,0.588235318660736);
#315=COLOUR_RGB('',0.509803950786591,0.509803950786591,0.588235318660736);
#316=DIRECTION('',(-0.0,0.0,1.0));
#317=DIRECTION('',(1.0,0.0,0.0));
#318=DIRECTION('',(0.0,0.0,-1.0));
#319=DIRECTION('',(1.0,0.0,0.0));
#320=DIRECTION('',(0.0,0.98555601838823,-0.169349740533428));
#321=DIRECTION('',(1.0,0.0,0.0));
#322=DIRECTION('',(0.0,-0.98555601838823,0.169349740533428));
#323=DIRECTION('',(-0.0,0.98555601838823,0.169349740533428));
#324=DIRECTION('',(1.0,0.0,0.0));
#325=DIRECTION('',(0.0,-0.98555601838823,-0.169349740533428));
#326=DIRECTION('',(0.0,0.0,-1.0));
#327=DIRECTION('',(1.0,0.0,0.0));
#328=DIRECTION('',(0.0,0.0,1.0));
#329=DIRECTION('',(0.0,-0.985556099781648,0.169349266851637));
#330=DIRECTION('',(1.0,0.0,0.0));
#331=DIRECTION('',(0.0,0.985556099781648,-0.169349266851637));
#332=DIRECTION('',(0.0,-0.985556099781648,-0.169349266851637));
#333=DIRECTION('',(0.0,0.985556099781648,0.169349266851637));
ENDSEC;
END-ISO-10303-21;
