ISO-10303-21;
HEADER;
FILE_DESCRIPTION(('STEP AP214'),'1');
FILE_NAME('cctmp_5A7DDBEF-1E72-4BC0-B177-8EBE3B25BBA3_2020_1_20_11_14_46_109..stp','2020-01-20T10:14:46',('Bosch Rexroth AG'),('CADClick - www.CADClick.com'),'Spatial InterOp 3D',' ','unknown authorization - (Healing Option Enabled)');
FILE_SCHEMA(('AUTOMOTIVE_DESIGN'));
ENDSEC;
DATA;
#1=MECHANICAL_DESIGN_GEOMETRIC_PRESENTATION_REPRESENTATION(' ',(#10,#11,#12,#13,#14,#15,#16,#17,#18),#6);
#2=PRODUCT_DEFINITION_CONTEXT('',#19,'design');
#3=APPLICATION_PROTOCOL_DEFINITION('INTERNATIONAL STANDARD','automotive_design',1994,#19);
#4=PRODUCT_CATEGORY_RELATIONSHIP('NONE','NONE',#20,#21);
#5=SHAPE_DEFINITION_REPRESENTATION(#22,#23);
#6= (GEOMETRIC_REPRESENTATION_CONTEXT(3)GLOBAL_UNCERTAINTY_ASSIGNED_CONTEXT((#26))GLOBAL_UNIT_ASSIGNED_CONTEXT((#28,#29,#30))REPRESENTATION_CONTEXT('NONE','WORKSPACE'));
#10=STYLED_ITEM('',(#32),#33);
#11=STYLED_ITEM('',(#34),#35);
#12=STYLED_ITEM('',(#36),#37);
#13=STYLED_ITEM('',(#38),#39);
#14=STYLED_ITEM('',(#40),#41);
#15=STYLED_ITEM('',(#42),#43);
#16=STYLED_ITEM('',(#44),#45);
#17=STYLED_ITEM('',(#46),#47);
#18=STYLED_ITEM('',(#48),#49);
#19=APPLICATION_CONTEXT(' ');
#20=PRODUCT_CATEGORY('part','NONE');
#21=PRODUCT_RELATED_PRODUCT_CATEGORY('detail',' ',(#50));
#22=PRODUCT_DEFINITION_SHAPE('NONE','NONE',#51);
#23=ADVANCED_BREP_SHAPE_REPRESENTATION('2020_01_20__11-14-46-109',(#49,#52),#6);
#26=UNCERTAINTY_MEASURE_WITH_UNIT(LENGTH_MEASURE(1.0E-006),#28,'','');
#28= (CONVERSION_BASED_UNIT('MILLIMETRE',#55)LENGTH_UNIT()NAMED_UNIT(#58));
#29= (NAMED_UNIT(#60)PLANE_ANGLE_UNIT()SI_UNIT($,.RADIAN.));
#30= (NAMED_UNIT(#60)SOLID_ANGLE_UNIT()SI_UNIT($,.STERADIAN.));
#32=PRESENTATION_STYLE_ASSIGNMENT((#66));
#33=ADVANCED_FACE('',(#67),#68,.F.);
#34=PRESENTATION_STYLE_ASSIGNMENT((#69));
#35=ADVANCED_FACE('',(#70),#71,.F.);
#36=PRESENTATION_STYLE_ASSIGNMENT((#72));
#37=ADVANCED_FACE('',(#73),#74,.T.);
#38=PRESENTATION_STYLE_ASSIGNMENT((#75));
#39=ADVANCED_FACE('',(#76),#77,.T.);
#40=PRESENTATION_STYLE_ASSIGNMENT((#78));
#41=ADVANCED_FACE('',(#79),#80,.T.);
#42=PRESENTATION_STYLE_ASSIGNMENT((#81));
#43=ADVANCED_FACE('',(#82),#83,.T.);
#44=PRESENTATION_STYLE_ASSIGNMENT((#84));
#45=ADVANCED_FACE('',(#85,#86),#87,.T.);
#46=PRESENTATION_STYLE_ASSIGNMENT((#88));
#47=ADVANCED_FACE('',(#89,#90),#91,.F.);
#48=PRESENTATION_STYLE_ASSIGNMENT((#92));
#49=MANIFOLD_SOLID_BREP('2020_01_20__11-14-46-109',#93);
#50=PRODUCT('2020_01_20__11-14-46-109','','PART--DESC',(#94));
#51=PRODUCT_DEFINITION('','NONE',#95,#2);
#52=AXIS2_PLACEMENT_3D('',#96,#97,#98);
#55=LENGTH_MEASURE_WITH_UNIT(LENGTH_MEASURE(1.0),#99);
#58=DIMENSIONAL_EXPONENTS(1.0,0.0,0.0,0.0,0.0,0.0,0.0);
#60=DIMENSIONAL_EXPONENTS(0.0,0.0,0.0,0.0,0.0,0.0,0.0);
#66=SURFACE_STYLE_USAGE(.BOTH.,#100);
#67=FACE_OUTER_BOUND('',#101,.T.);
#68=CYLINDRICAL_SURFACE('',#102,5.0);
#69=SURFACE_STYLE_USAGE(.BOTH.,#103);
#70=FACE_OUTER_BOUND('',#104,.T.);
#71=CYLINDRICAL_SURFACE('',#105,5.0);
#72=SURFACE_STYLE_USAGE(.BOTH.,#106);
#73=FACE_OUTER_BOUND('',#107,.T.);
#74=PLANE('',#108);
#75=SURFACE_STYLE_USAGE(.BOTH.,#109);
#76=FACE_OUTER_BOUND('',#110,.T.);
#77=PLANE('',#111);
#78=SURFACE_STYLE_USAGE(.BOTH.,#112);
#79=FACE_OUTER_BOUND('',#113,.T.);
#80=PLANE('',#114);
#81=SURFACE_STYLE_USAGE(.BOTH.,#115);
#82=FACE_OUTER_BOUND('',#116,.T.);
#83=PLANE('',#117);
#84=SURFACE_STYLE_USAGE(.BOTH.,#118);
#85=FACE_BOUND('',#119,.T.);
#86=FACE_OUTER_BOUND('',#120,.T.);
#87=PLANE('',#121);
#88=SURFACE_STYLE_USAGE(.BOTH.,#122);
#89=FACE_BOUND('',#123,.T.);
#90=FACE_OUTER_BOUND('',#124,.T.);
#91=PLANE('',#125);
#92=SURFACE_STYLE_USAGE(.BOTH.,#126);
#93=CLOSED_SHELL('',(#33,#35,#37,#39,#41,#43,#45,#47));
#94=PRODUCT_CONTEXT('',#19,'mechanical');
#95=PRODUCT_DEFINITION_FORMATION_WITH_SPECIFIED_SOURCE(' ','NONE',#50,.NOT_KNOWN.);
#96=CARTESIAN_POINT('',(0.0,0.0,0.0));
#97=DIRECTION('',(0.0,0.0,1.0));
#98=DIRECTION('',(1.0,0.0,0.0));
#99= (NAMED_UNIT(#58)LENGTH_UNIT()SI_UNIT(.MILLI.,.METRE.));
#100=SURFACE_SIDE_STYLE('',(#128));
#101=EDGE_LOOP('',(#129,#130,#131,#132));
#102=AXIS2_PLACEMENT_3D('',#133,#134,#135);
#103=SURFACE_SIDE_STYLE('',(#136));
#104=EDGE_LOOP('',(#137,#138,#139,#140));
#105=AXIS2_PLACEMENT_3D('',#141,#142,#143);
#106=SURFACE_SIDE_STYLE('',(#144));
#107=EDGE_LOOP('',(#145,#146,#147,#148));
#108=AXIS2_PLACEMENT_3D('',#149,#150,#151);
#109=SURFACE_SIDE_STYLE('',(#152));
#110=EDGE_LOOP('',(#153,#154,#155,#156));
#111=AXIS2_PLACEMENT_3D('',#157,#158,#159);
#112=SURFACE_SIDE_STYLE('',(#160));
#113=EDGE_LOOP('',(#161,#162,#163,#164));
#114=AXIS2_PLACEMENT_3D('',#165,#166,#167);
#115=SURFACE_SIDE_STYLE('',(#168));
#116=EDGE_LOOP('',(#169,#170,#171,#172));
#117=AXIS2_PLACEMENT_3D('',#173,#174,#175);
#118=SURFACE_SIDE_STYLE('',(#176));
#119=EDGE_LOOP('',(#177,#178));
#120=EDGE_LOOP('',(#179,#180,#181,#182));
#121=AXIS2_PLACEMENT_3D('',#183,#184,#185);
#122=SURFACE_SIDE_STYLE('',(#186));
#123=EDGE_LOOP('',(#187,#188));
#124=EDGE_LOOP('',(#189,#190,#191,#192));
#125=AXIS2_PLACEMENT_3D('',#193,#194,#195);
#126=SURFACE_SIDE_STYLE('',(#196));
#128=SURFACE_STYLE_FILL_AREA(#197);
#129=ORIENTED_EDGE('',*,*,#198,.F.);
#130=ORIENTED_EDGE('',*,*,#199,.F.);
#131=ORIENTED_EDGE('',*,*,#200,.F.);
#132=ORIENTED_EDGE('',*,*,#201,.F.);
#133=CARTESIAN_POINT('',(500.0,0.0,0.0));
#134=DIRECTION('',(1.0,0.0,0.0));
#135=DIRECTION('',(0.0,-1.0,0.0));
#136=SURFACE_STYLE_FILL_AREA(#202);
#137=ORIENTED_EDGE('',*,*,#198,.T.);
#138=ORIENTED_EDGE('',*,*,#203,.F.);
#139=ORIENTED_EDGE('',*,*,#200,.T.);
#140=ORIENTED_EDGE('',*,*,#204,.F.);
#141=CARTESIAN_POINT('',(500.0,0.0,0.0));
#142=DIRECTION('',(1.0,0.0,0.0));
#143=DIRECTION('',(0.0,-1.0,0.0));
#144=SURFACE_STYLE_FILL_AREA(#205);
#145=ORIENTED_EDGE('',*,*,#206,.T.);
#146=ORIENTED_EDGE('',*,*,#207,.F.);
#147=ORIENTED_EDGE('',*,*,#208,.T.);
#148=ORIENTED_EDGE('',*,*,#209,.T.);
#149=CARTESIAN_POINT('',(0.0,0.0,-22.5));
#150=DIRECTION('',(0.0,0.0,-1.0));
#151=DIRECTION('',(0.0,1.0,0.0));
#152=SURFACE_STYLE_FILL_AREA(#210);
#153=ORIENTED_EDGE('',*,*,#211,.T.);
#154=ORIENTED_EDGE('',*,*,#212,.F.);
#155=ORIENTED_EDGE('',*,*,#213,.T.);
#156=ORIENTED_EDGE('',*,*,#207,.T.);
#157=CARTESIAN_POINT('',(0.0,-22.5,0.0));
#158=DIRECTION('',(0.0,-1.0,0.0));
#159=DIRECTION('',(0.0,0.0,-1.0));
#160=SURFACE_STYLE_FILL_AREA(#214);
#161=ORIENTED_EDGE('',*,*,#215,.T.);
#162=ORIENTED_EDGE('',*,*,#216,.F.);
#163=ORIENTED_EDGE('',*,*,#217,.T.);
#164=ORIENTED_EDGE('',*,*,#212,.T.);
#165=CARTESIAN_POINT('',(0.0,0.0,22.5));
#166=DIRECTION('',(0.0,0.0,1.0));
#167=DIRECTION('',(0.0,-1.0,0.0));
#168=SURFACE_STYLE_FILL_AREA(#218);
#169=ORIENTED_EDGE('',*,*,#219,.T.);
#170=ORIENTED_EDGE('',*,*,#209,.F.);
#171=ORIENTED_EDGE('',*,*,#220,.T.);
#172=ORIENTED_EDGE('',*,*,#216,.T.);
#173=CARTESIAN_POINT('',(0.0,22.5,0.0));
#174=DIRECTION('',(0.0,1.0,0.0));
#175=DIRECTION('',(0.0,0.0,1.0));
#176=SURFACE_STYLE_FILL_AREA(#221);
#177=ORIENTED_EDGE('',*,*,#201,.T.);
#178=ORIENTED_EDGE('',*,*,#203,.T.);
#179=ORIENTED_EDGE('',*,*,#220,.F.);
#180=ORIENTED_EDGE('',*,*,#208,.F.);
#181=ORIENTED_EDGE('',*,*,#213,.F.);
#182=ORIENTED_EDGE('',*,*,#217,.F.);
#183=CARTESIAN_POINT('',(0.0,0.0,0.0));
#184=DIRECTION('',(-1.0,0.0,0.0));
#185=DIRECTION('',(0.0,-1.0,0.0));
#186=SURFACE_STYLE_FILL_AREA(#222);
#187=ORIENTED_EDGE('',*,*,#204,.T.);
#188=ORIENTED_EDGE('',*,*,#199,.T.);
#189=ORIENTED_EDGE('',*,*,#206,.F.);
#190=ORIENTED_EDGE('',*,*,#219,.F.);
#191=ORIENTED_EDGE('',*,*,#215,.F.);
#192=ORIENTED_EDGE('',*,*,#211,.F.);
#193=CARTESIAN_POINT('',(1000.0,0.0,0.0));
#194=DIRECTION('',(-1.0,0.0,0.0));
#195=DIRECTION('',(0.0,-1.0,0.0));
#196=SURFACE_STYLE_FILL_AREA(#223);
#197=FILL_AREA_STYLE('',(#224));
#198=EDGE_CURVE('',#225,#226,#227,.T.);
#199=EDGE_CURVE('',#228,#225,#229,.T.);
#200=EDGE_CURVE('',#230,#228,#231,.T.);
#201=EDGE_CURVE('',#226,#230,#232,.T.);
#202=FILL_AREA_STYLE('',(#233));
#203=EDGE_CURVE('',#230,#226,#234,.T.);
#204=EDGE_CURVE('',#225,#228,#235,.T.);
#205=FILL_AREA_STYLE('',(#236));
#206=EDGE_CURVE('',#237,#238,#239,.T.);
#207=EDGE_CURVE('',#240,#238,#241,.T.);
#208=EDGE_CURVE('',#240,#242,#243,.T.);
#209=EDGE_CURVE('',#242,#237,#244,.T.);
#210=FILL_AREA_STYLE('',(#245));
#211=EDGE_CURVE('',#238,#246,#247,.T.);
#212=EDGE_CURVE('',#248,#246,#249,.T.);
#213=EDGE_CURVE('',#248,#240,#250,.T.);
#214=FILL_AREA_STYLE('',(#251));
#215=EDGE_CURVE('',#246,#252,#253,.T.);
#216=EDGE_CURVE('',#254,#252,#255,.T.);
#217=EDGE_CURVE('',#254,#248,#256,.T.);
#218=FILL_AREA_STYLE('',(#257));
#219=EDGE_CURVE('',#252,#237,#258,.T.);
#220=EDGE_CURVE('',#242,#254,#259,.T.);
#221=FILL_AREA_STYLE('',(#260));
#222=FILL_AREA_STYLE('',(#261));
#223=FILL_AREA_STYLE('',(#262));
#224=FILL_AREA_STYLE_COLOUR('',#263);
#225=VERTEX_POINT('',#264);
#226=VERTEX_POINT('',#265);
#227=LINE('',#266,#267);
#228=VERTEX_POINT('',#268);
#229=CIRCLE('',#269,5.0);
#230=VERTEX_POINT('',#270);
#231=LINE('',#271,#272);
#232=CIRCLE('',#273,5.0);
#233=FILL_AREA_STYLE_COLOUR('',#274);
#234=CIRCLE('',#275,5.0);
#235=CIRCLE('',#276,5.0);
#236=FILL_AREA_STYLE_COLOUR('',#277);
#237=VERTEX_POINT('',#278);
#238=VERTEX_POINT('',#279);
#239=LINE('',#280,#281);
#240=VERTEX_POINT('',#282);
#241=LINE('',#283,#284);
#242=VERTEX_POINT('',#285);
#243=LINE('',#286,#287);
#244=LINE('',#288,#289);
#245=FILL_AREA_STYLE_COLOUR('',#290);
#246=VERTEX_POINT('',#291);
#247=LINE('',#292,#293);
#248=VERTEX_POINT('',#294);
#249=LINE('',#295,#296);
#250=LINE('',#297,#298);
#251=FILL_AREA_STYLE_COLOUR('',#299);
#252=VERTEX_POINT('',#300);
#253=LINE('',#301,#302);
#254=VERTEX_POINT('',#303);
#255=LINE('',#304,#305);
#256=LINE('',#306,#307);
#257=FILL_AREA_STYLE_COLOUR('',#308);
#258=LINE('',#309,#310);
#259=LINE('',#311,#312);
#260=FILL_AREA_STYLE_COLOUR('',#313);
#261=FILL_AREA_STYLE_COLOUR('',#314);
#262=FILL_AREA_STYLE_COLOUR('',#315);
#263=COLOUR_RGB('',0.509803950786591,0.509803950786591,0.588235318660736);
#264=CARTESIAN_POINT('',(1000.0,-5.0,0.0));
#265=CARTESIAN_POINT('',(0.0,-5.0,0.0));
#266=CARTESIAN_POINT('',(500.0,-5.0,6.12323399573677E-016));
#267=VECTOR('',#316,1.0);
#268=CARTESIAN_POINT('',(1000.0,5.0,-6.12323399573677E-016));
#269=AXIS2_PLACEMENT_3D('',#317,#318,#319);
#270=CARTESIAN_POINT('',(0.0,5.0,-6.12323399573677E-016));
#271=CARTESIAN_POINT('',(500.0,5.0,-6.12323399573677E-016));
#272=VECTOR('',#320,1.0);
#273=AXIS2_PLACEMENT_3D('',#321,#322,#323);
#274=COLOUR_RGB('',0.509803950786591,0.509803950786591,0.588235318660736);
#275=AXIS2_PLACEMENT_3D('',#324,#325,#326);
#276=AXIS2_PLACEMENT_3D('',#327,#328,#329);
#277=COLOUR_RGB('',0.509803950786591,0.509803950786591,0.588235318660736);
#278=CARTESIAN_POINT('',(1000.0,22.5,-22.5));
#279=CARTESIAN_POINT('',(1000.0,-22.5,-22.5));
#280=CARTESIAN_POINT('',(1000.0,-22.5,-22.5));
#281=VECTOR('',#330,1.0);
#282=CARTESIAN_POINT('',(0.0,-22.5,-22.5));
#283=CARTESIAN_POINT('',(0.0,-22.5,-22.5));
#284=VECTOR('',#331,1.0);
#285=CARTESIAN_POINT('',(0.0,22.5,-22.5));
#286=CARTESIAN_POINT('',(0.0,-22.5,-22.5));
#287=VECTOR('',#332,1.0);
#288=CARTESIAN_POINT('',(0.0,22.5,-22.5));
#289=VECTOR('',#333,1.0);
#290=COLOUR_RGB('',0.509803950786591,0.509803950786591,0.588235318660736);
#291=CARTESIAN_POINT('',(1000.0,-22.5,22.5));
#292=CARTESIAN_POINT('',(1000.0,-22.5,22.5));
#293=VECTOR('',#334,1.0);
#294=CARTESIAN_POINT('',(0.0,-22.5,22.5));
#295=CARTESIAN_POINT('',(0.0,-22.5,22.5));
#296=VECTOR('',#335,1.0);
#297=CARTESIAN_POINT('',(0.0,-22.5,22.5));
#298=VECTOR('',#336,1.0);
#299=COLOUR_RGB('',0.509803950786591,0.509803950786591,0.588235318660736);
#300=CARTESIAN_POINT('',(1000.0,22.5,22.5));
#301=CARTESIAN_POINT('',(1000.0,22.5,22.5));
#302=VECTOR('',#337,1.0);
#303=CARTESIAN_POINT('',(0.0,22.5,22.5));
#304=CARTESIAN_POINT('',(0.0,22.5,22.5));
#305=VECTOR('',#338,1.0);
#306=CARTESIAN_POINT('',(0.0,22.5,22.5));
#307=VECTOR('',#339,1.0);
#308=COLOUR_RGB('',0.509803950786591,0.509803950786591,0.588235318660736);
#309=CARTESIAN_POINT('',(1000.0,22.5,-22.5));
#310=VECTOR('',#340,1.0);
#311=CARTESIAN_POINT('',(0.0,22.5,-22.5));
#312=VECTOR('',#341,1.0);
#313=COLOUR_RGB('',0.509803950786591,0.509803950786591,0.588235318660736);
#314=COLOUR_RGB('',0.509803950786591,0.509803950786591,0.588235318660736);
#315=COLOUR_RGB('',0.509803950786591,0.509803950786591,0.588235318660736);
#316=DIRECTION('',(-1.0,0.0,-0.0));
#317=CARTESIAN_POINT('',(1000.0,0.0,0.0));
#318=DIRECTION('',(-1.0,0.0,0.0));
#319=DIRECTION('',(0.0,-1.0,0.0));
#320=DIRECTION('',(1.0,0.0,-0.0));
#321=CARTESIAN_POINT('',(0.0,0.0,0.0));
#322=DIRECTION('',(1.0,0.0,-0.0));
#323=DIRECTION('',(0.0,-1.0,0.0));
#324=CARTESIAN_POINT('',(0.0,0.0,0.0));
#325=DIRECTION('',(1.0,0.0,-0.0));
#326=DIRECTION('',(0.0,-1.0,0.0));
#327=CARTESIAN_POINT('',(1000.0,0.0,0.0));
#328=DIRECTION('',(-1.0,0.0,0.0));
#329=DIRECTION('',(0.0,-1.0,0.0));
#330=DIRECTION('',(0.0,-1.0,0.0));
#331=DIRECTION('',(1.0,0.0,0.0));
#332=DIRECTION('',(0.0,1.0,0.0));
#333=DIRECTION('',(1.0,0.0,0.0));
#334=DIRECTION('',(0.0,0.0,1.0));
#335=DIRECTION('',(1.0,0.0,0.0));
#336=DIRECTION('',(0.0,0.0,-1.0));
#337=DIRECTION('',(0.0,1.0,-0.0));
#338=DIRECTION('',(1.0,0.0,0.0));
#339=DIRECTION('',(0.0,-1.0,0.0));
#340=DIRECTION('',(0.0,0.0,-1.0));
#341=DIRECTION('',(0.0,0.0,1.0));
ENDSEC;
END-ISO-10303-21;
