ISO-10303-21;
HEADER;
FILE_DESCRIPTION(('STEP AP214'),'1');
FILE_NAME('cctmp_65F6AC51-9961-4FBC-AE7A-922CF473B401_2020_1_20_11_16_24_701..stp','2020-01-20T10:16:24',('Bosch Rexroth AG'),('CADClick - www.CADClick.com'),'Spatial InterOp 3D',' ','unknown authorization - (Healing Option Enabled)');
FILE_SCHEMA(('AUTOMOTIVE_DESIGN'));
ENDSEC;
DATA;
#1=MECHANICAL_DESIGN_GEOMETRIC_PRESENTATION_REPRESENTATION(' ',(#10,#11,#12,#13,#14,#15,#16,#17,#18,#19,#20,#21,#22,#23,#24,#25,#26,#27,#28),#6);
#2=PRODUCT_DEFINITION_CONTEXT('',#29,'design');
#3=APPLICATION_PROTOCOL_DEFINITION('INTERNATIONAL STANDARD','automotive_design',1994,#29);
#4=PRODUCT_CATEGORY_RELATIONSHIP('NONE','NONE',#30,#31);
#5=SHAPE_DEFINITION_REPRESENTATION(#32,#33);
#6= (GEOMETRIC_REPRESENTATION_CONTEXT(3)GLOBAL_UNCERTAINTY_ASSIGNED_CONTEXT((#36))GLOBAL_UNIT_ASSIGNED_CONTEXT((#38,#39,#40))REPRESENTATION_CONTEXT('NONE','WORKSPACE'));
#10=STYLED_ITEM('',(#42),#43);
#11=STYLED_ITEM('',(#44),#45);
#12=STYLED_ITEM('',(#46),#47);
#13=STYLED_ITEM('',(#48),#49);
#14=STYLED_ITEM('',(#50),#51);
#15=STYLED_ITEM('',(#52),#53);
#16=STYLED_ITEM('',(#54),#55);
#17=STYLED_ITEM('',(#56),#57);
#18=STYLED_ITEM('',(#58),#59);
#19=STYLED_ITEM('',(#60),#61);
#20=STYLED_ITEM('',(#62),#63);
#21=STYLED_ITEM('',(#64),#65);
#22=STYLED_ITEM('',(#66),#67);
#23=STYLED_ITEM('',(#68),#69);
#24=STYLED_ITEM('',(#70),#71);
#25=STYLED_ITEM('',(#72),#73);
#26=STYLED_ITEM('',(#74),#75);
#27=STYLED_ITEM('',(#76),#77);
#28=STYLED_ITEM('',(#78),#79);
#29=APPLICATION_CONTEXT(' ');
#30=PRODUCT_CATEGORY('part','NONE');
#31=PRODUCT_RELATED_PRODUCT_CATEGORY('detail',' ',(#80));
#32=PRODUCT_DEFINITION_SHAPE('NONE','NONE',#81);
#33=ADVANCED_BREP_SHAPE_REPRESENTATION('2020_01_20__11-16-24-701',(#79,#82),#6);
#36=UNCERTAINTY_MEASURE_WITH_UNIT(LENGTH_MEASURE(1.0E-006),#38,'','');
#38= (CONVERSION_BASED_UNIT('MILLIMETRE',#85)LENGTH_UNIT()NAMED_UNIT(#88));
#39= (NAMED_UNIT(#90)PLANE_ANGLE_UNIT()SI_UNIT($,.RADIAN.));
#40= (NAMED_UNIT(#90)SOLID_ANGLE_UNIT()SI_UNIT($,.STERADIAN.));
#42=PRESENTATION_STYLE_ASSIGNMENT((#96));
#43=ADVANCED_FACE('',(#97),#98,.F.);
#44=PRESENTATION_STYLE_ASSIGNMENT((#99));
#45=ADVANCED_FACE('',(#100),#101,.F.);
#46=PRESENTATION_STYLE_ASSIGNMENT((#102));
#47=ADVANCED_FACE('',(#103),#104,.F.);
#48=PRESENTATION_STYLE_ASSIGNMENT((#105));
#49=ADVANCED_FACE('',(#106),#107,.F.);
#50=PRESENTATION_STYLE_ASSIGNMENT((#108));
#51=ADVANCED_FACE('',(#109),#110,.T.);
#52=PRESENTATION_STYLE_ASSIGNMENT((#111));
#53=ADVANCED_FACE('',(#112),#113,.T.);
#54=PRESENTATION_STYLE_ASSIGNMENT((#114));
#55=ADVANCED_FACE('',(#115),#116,.T.);
#56=PRESENTATION_STYLE_ASSIGNMENT((#117));
#57=ADVANCED_FACE('',(#118),#119,.T.);
#58=PRESENTATION_STYLE_ASSIGNMENT((#120));
#59=ADVANCED_FACE('',(#121),#122,.T.);
#60=PRESENTATION_STYLE_ASSIGNMENT((#123));
#61=ADVANCED_FACE('',(#124),#125,.T.);
#62=PRESENTATION_STYLE_ASSIGNMENT((#126));
#63=ADVANCED_FACE('',(#127),#128,.T.);
#64=PRESENTATION_STYLE_ASSIGNMENT((#129));
#65=ADVANCED_FACE('',(#130),#131,.T.);
#66=PRESENTATION_STYLE_ASSIGNMENT((#132));
#67=ADVANCED_FACE('',(#133),#134,.T.);
#68=PRESENTATION_STYLE_ASSIGNMENT((#135));
#69=ADVANCED_FACE('',(#136),#137,.T.);
#70=PRESENTATION_STYLE_ASSIGNMENT((#138));
#71=ADVANCED_FACE('',(#139),#140,.T.);
#72=PRESENTATION_STYLE_ASSIGNMENT((#141));
#73=ADVANCED_FACE('',(#142),#143,.T.);
#74=PRESENTATION_STYLE_ASSIGNMENT((#144));
#75=ADVANCED_FACE('',(#145,#146,#147),#148,.F.);
#76=PRESENTATION_STYLE_ASSIGNMENT((#149));
#77=ADVANCED_FACE('',(#150,#151,#152),#153,.T.);
#78=PRESENTATION_STYLE_ASSIGNMENT((#154));
#79=MANIFOLD_SOLID_BREP('2020_01_20__11-16-24-701',#155);
#80=PRODUCT('2020_01_20__11-16-24-701','','PART--DESC',(#156));
#81=PRODUCT_DEFINITION('','NONE',#157,#2);
#82=AXIS2_PLACEMENT_3D('',#158,#159,#160);
#85=LENGTH_MEASURE_WITH_UNIT(LENGTH_MEASURE(1.0),#161);
#88=DIMENSIONAL_EXPONENTS(1.0,0.0,0.0,0.0,0.0,0.0,0.0);
#90=DIMENSIONAL_EXPONENTS(0.0,0.0,0.0,0.0,0.0,0.0,0.0);
#96=SURFACE_STYLE_USAGE(.BOTH.,#162);
#97=FACE_OUTER_BOUND('',#163,.T.);
#98=CYLINDRICAL_SURFACE('',#164,5.0);
#99=SURFACE_STYLE_USAGE(.BOTH.,#165);
#100=FACE_OUTER_BOUND('',#166,.T.);
#101=CYLINDRICAL_SURFACE('',#167,5.0);
#102=SURFACE_STYLE_USAGE(.BOTH.,#168);
#103=FACE_OUTER_BOUND('',#169,.T.);
#104=CYLINDRICAL_SURFACE('',#170,5.0);
#105=SURFACE_STYLE_USAGE(.BOTH.,#171);
#106=FACE_OUTER_BOUND('',#172,.T.);
#107=CYLINDRICAL_SURFACE('',#173,5.0);
#108=SURFACE_STYLE_USAGE(.BOTH.,#174);
#109=FACE_OUTER_BOUND('',#175,.T.);
#110=PLANE('',#176);
#111=SURFACE_STYLE_USAGE(.BOTH.,#177);
#112=FACE_OUTER_BOUND('',#178,.T.);
#113=PLANE('',#179);
#114=SURFACE_STYLE_USAGE(.BOTH.,#180);
#115=FACE_OUTER_BOUND('',#181,.T.);
#116=PLANE('',#182);
#117=SURFACE_STYLE_USAGE(.BOTH.,#183);
#118=FACE_OUTER_BOUND('',#184,.T.);
#119=PLANE('',#185);
#120=SURFACE_STYLE_USAGE(.BOTH.,#186);
#121=FACE_OUTER_BOUND('',#187,.T.);
#122=PLANE('',#188);
#123=SURFACE_STYLE_USAGE(.BOTH.,#189);
#124=FACE_OUTER_BOUND('',#190,.T.);
#125=PLANE('',#191);
#126=SURFACE_STYLE_USAGE(.BOTH.,#192);
#127=FACE_OUTER_BOUND('',#193,.T.);
#128=PLANE('',#194);
#129=SURFACE_STYLE_USAGE(.BOTH.,#195);
#130=FACE_OUTER_BOUND('',#196,.T.);
#131=PLANE('',#197);
#132=SURFACE_STYLE_USAGE(.BOTH.,#198);
#133=FACE_OUTER_BOUND('',#199,.T.);
#134=PLANE('',#200);
#135=SURFACE_STYLE_USAGE(.BOTH.,#201);
#136=FACE_OUTER_BOUND('',#202,.T.);
#137=PLANE('',#203);
#138=SURFACE_STYLE_USAGE(.BOTH.,#204);
#139=FACE_OUTER_BOUND('',#205,.T.);
#140=PLANE('',#206);
#141=SURFACE_STYLE_USAGE(.BOTH.,#207);
#142=FACE_OUTER_BOUND('',#208,.T.);
#143=PLANE('',#209);
#144=SURFACE_STYLE_USAGE(.BOTH.,#210);
#145=FACE_BOUND('',#211,.T.);
#146=FACE_BOUND('',#212,.T.);
#147=FACE_OUTER_BOUND('',#213,.T.);
#148=PLANE('',#214);
#149=SURFACE_STYLE_USAGE(.BOTH.,#215);
#150=FACE_BOUND('',#216,.T.);
#151=FACE_BOUND('',#217,.T.);
#152=FACE_OUTER_BOUND('',#218,.T.);
#153=PLANE('',#219);
#154=SURFACE_STYLE_USAGE(.BOTH.,#220);
#155=CLOSED_SHELL('',(#43,#45,#47,#49,#51,#53,#55,#57,#59,#61,#63,#65,#67,#69,#71,#73,#75,#77));
#156=PRODUCT_CONTEXT('',#29,'mechanical');
#157=PRODUCT_DEFINITION_FORMATION_WITH_SPECIFIED_SOURCE(' ','NONE',#80,.NOT_KNOWN.);
#158=CARTESIAN_POINT('',(0.0,0.0,0.0));
#159=DIRECTION('',(0.0,0.0,1.0));
#160=DIRECTION('',(1.0,0.0,0.0));
#161= (NAMED_UNIT(#88)LENGTH_UNIT()SI_UNIT(.MILLI.,.METRE.));
#162=SURFACE_SIDE_STYLE('',(#222));
#163=EDGE_LOOP('',(#223,#224,#225,#226));
#164=AXIS2_PLACEMENT_3D('',#227,#228,#229);
#165=SURFACE_SIDE_STYLE('',(#230));
#166=EDGE_LOOP('',(#231,#232,#233,#234));
#167=AXIS2_PLACEMENT_3D('',#235,#236,#237);
#168=SURFACE_SIDE_STYLE('',(#238));
#169=EDGE_LOOP('',(#239,#240,#241,#242));
#170=AXIS2_PLACEMENT_3D('',#243,#244,#245);
#171=SURFACE_SIDE_STYLE('',(#246));
#172=EDGE_LOOP('',(#247,#248,#249,#250));
#173=AXIS2_PLACEMENT_3D('',#251,#252,#253);
#174=SURFACE_SIDE_STYLE('',(#254));
#175=EDGE_LOOP('',(#255,#256,#257,#258));
#176=AXIS2_PLACEMENT_3D('',#259,#260,#261);
#177=SURFACE_SIDE_STYLE('',(#262));
#178=EDGE_LOOP('',(#263,#264,#265,#266));
#179=AXIS2_PLACEMENT_3D('',#267,#268,#269);
#180=SURFACE_SIDE_STYLE('',(#270));
#181=EDGE_LOOP('',(#271,#272,#273,#274));
#182=AXIS2_PLACEMENT_3D('',#275,#276,#277);
#183=SURFACE_SIDE_STYLE('',(#278));
#184=EDGE_LOOP('',(#279,#280,#281,#282));
#185=AXIS2_PLACEMENT_3D('',#283,#284,#285);
#186=SURFACE_SIDE_STYLE('',(#286));
#187=EDGE_LOOP('',(#287,#288,#289,#290));
#188=AXIS2_PLACEMENT_3D('',#291,#292,#293);
#189=SURFACE_SIDE_STYLE('',(#294));
#190=EDGE_LOOP('',(#295,#296,#297,#298));
#191=AXIS2_PLACEMENT_3D('',#299,#300,#301);
#192=SURFACE_SIDE_STYLE('',(#302));
#193=EDGE_LOOP('',(#303,#304,#305,#306));
#194=AXIS2_PLACEMENT_3D('',#307,#308,#309);
#195=SURFACE_SIDE_STYLE('',(#310));
#196=EDGE_LOOP('',(#311,#312,#313,#314));
#197=AXIS2_PLACEMENT_3D('',#315,#316,#317);
#198=SURFACE_SIDE_STYLE('',(#318));
#199=EDGE_LOOP('',(#319,#320,#321,#322));
#200=AXIS2_PLACEMENT_3D('',#323,#324,#325);
#201=SURFACE_SIDE_STYLE('',(#326));
#202=EDGE_LOOP('',(#327,#328,#329,#330));
#203=AXIS2_PLACEMENT_3D('',#331,#332,#333);
#204=SURFACE_SIDE_STYLE('',(#334));
#205=EDGE_LOOP('',(#335,#336,#337,#338));
#206=AXIS2_PLACEMENT_3D('',#339,#340,#341);
#207=SURFACE_SIDE_STYLE('',(#342));
#208=EDGE_LOOP('',(#343,#344,#345,#346));
#209=AXIS2_PLACEMENT_3D('',#347,#348,#349);
#210=SURFACE_SIDE_STYLE('',(#350));
#211=EDGE_LOOP('',(#351,#352));
#212=EDGE_LOOP('',(#353,#354));
#213=EDGE_LOOP('',(#355,#356,#357,#358,#359,#360,#361,#362,#363,#364,#365,#366));
#214=AXIS2_PLACEMENT_3D('',#367,#368,#369);
#215=SURFACE_SIDE_STYLE('',(#370));
#216=EDGE_LOOP('',(#371,#372));
#217=EDGE_LOOP('',(#373,#374));
#218=EDGE_LOOP('',(#375,#376,#377,#378,#379,#380,#381,#382,#383,#384,#385,#386));
#219=AXIS2_PLACEMENT_3D('',#387,#388,#389);
#220=SURFACE_SIDE_STYLE('',(#390));
#222=SURFACE_STYLE_FILL_AREA(#391);
#223=ORIENTED_EDGE('',*,*,#392,.F.);
#224=ORIENTED_EDGE('',*,*,#393,.F.);
#225=ORIENTED_EDGE('',*,*,#394,.F.);
#226=ORIENTED_EDGE('',*,*,#395,.F.);
#227=CARTESIAN_POINT('',(500.0,-22.5,0.0));
#228=DIRECTION('',(1.0,0.0,0.0));
#229=DIRECTION('',(0.0,0.0,-1.0));
#230=SURFACE_STYLE_FILL_AREA(#396);
#231=ORIENTED_EDGE('',*,*,#397,.F.);
#232=ORIENTED_EDGE('',*,*,#398,.F.);
#233=ORIENTED_EDGE('',*,*,#399,.F.);
#234=ORIENTED_EDGE('',*,*,#400,.F.);
#235=CARTESIAN_POINT('',(500.0,22.5,0.0));
#236=DIRECTION('',(1.0,0.0,0.0));
#237=DIRECTION('',(0.0,0.0,-1.0));
#238=SURFACE_STYLE_FILL_AREA(#401);
#239=ORIENTED_EDGE('',*,*,#397,.T.);
#240=ORIENTED_EDGE('',*,*,#402,.F.);
#241=ORIENTED_EDGE('',*,*,#399,.T.);
#242=ORIENTED_EDGE('',*,*,#403,.F.);
#243=CARTESIAN_POINT('',(500.0,22.5,0.0));
#244=DIRECTION('',(1.0,0.0,0.0));
#245=DIRECTION('',(0.0,0.0,-1.0));
#246=SURFACE_STYLE_FILL_AREA(#404);
#247=ORIENTED_EDGE('',*,*,#392,.T.);
#248=ORIENTED_EDGE('',*,*,#405,.F.);
#249=ORIENTED_EDGE('',*,*,#394,.T.);
#250=ORIENTED_EDGE('',*,*,#406,.F.);
#251=CARTESIAN_POINT('',(500.0,-22.5,0.0));
#252=DIRECTION('',(1.0,0.0,0.0));
#253=DIRECTION('',(0.0,0.0,-1.0));
#254=SURFACE_STYLE_FILL_AREA(#407);
#255=ORIENTED_EDGE('',*,*,#408,.T.);
#256=ORIENTED_EDGE('',*,*,#409,.F.);
#257=ORIENTED_EDGE('',*,*,#410,.T.);
#258=ORIENTED_EDGE('',*,*,#411,.T.);
#259=CARTESIAN_POINT('',(0.0,0.0,22.5));
#260=DIRECTION('',(0.0,0.0,1.0));
#261=DIRECTION('',(0.0,-1.0,0.0));
#262=SURFACE_STYLE_FILL_AREA(#412);
#263=ORIENTED_EDGE('',*,*,#413,.T.);
#264=ORIENTED_EDGE('',*,*,#414,.F.);
#265=ORIENTED_EDGE('',*,*,#415,.T.);
#266=ORIENTED_EDGE('',*,*,#409,.T.);
#267=CARTESIAN_POINT('',(0.0,45.0,13.75));
#268=DIRECTION('',(0.0,1.0,0.0));
#269=DIRECTION('',(0.0,0.0,1.0));
#270=SURFACE_STYLE_FILL_AREA(#416);
#271=ORIENTED_EDGE('',*,*,#417,.T.);
#272=ORIENTED_EDGE('',*,*,#418,.F.);
#273=ORIENTED_EDGE('',*,*,#419,.T.);
#274=ORIENTED_EDGE('',*,*,#414,.T.);
#275=CARTESIAN_POINT('',(0.0,37.75,5.0));
#276=DIRECTION('',(0.0,0.0,-1.0));
#277=DIRECTION('',(0.0,1.0,0.0));
#278=SURFACE_STYLE_FILL_AREA(#420);
#279=ORIENTED_EDGE('',*,*,#421,.T.);
#280=ORIENTED_EDGE('',*,*,#422,.F.);
#281=ORIENTED_EDGE('',*,*,#423,.T.);
#282=ORIENTED_EDGE('',*,*,#418,.T.);
#283=CARTESIAN_POINT('',(0.0,30.5,0.0));
#284=DIRECTION('',(0.0,1.0,0.0));
#285=DIRECTION('',(0.0,0.0,1.0));
#286=SURFACE_STYLE_FILL_AREA(#424);
#287=ORIENTED_EDGE('',*,*,#425,.T.);
#288=ORIENTED_EDGE('',*,*,#426,.F.);
#289=ORIENTED_EDGE('',*,*,#427,.T.);
#290=ORIENTED_EDGE('',*,*,#422,.T.);
#291=CARTESIAN_POINT('',(0.0,37.75,-5.0));
#292=DIRECTION('',(0.0,0.0,1.0));
#293=DIRECTION('',(0.0,-1.0,0.0));
#294=SURFACE_STYLE_FILL_AREA(#428);
#295=ORIENTED_EDGE('',*,*,#429,.T.);
#296=ORIENTED_EDGE('',*,*,#430,.F.);
#297=ORIENTED_EDGE('',*,*,#431,.T.);
#298=ORIENTED_EDGE('',*,*,#426,.T.);
#299=CARTESIAN_POINT('',(0.0,45.0,-13.75));
#300=DIRECTION('',(0.0,1.0,0.0));
#301=DIRECTION('',(0.0,0.0,1.0));
#302=SURFACE_STYLE_FILL_AREA(#432);
#303=ORIENTED_EDGE('',*,*,#433,.T.);
#304=ORIENTED_EDGE('',*,*,#434,.F.);
#305=ORIENTED_EDGE('',*,*,#435,.T.);
#306=ORIENTED_EDGE('',*,*,#430,.T.);
#307=CARTESIAN_POINT('',(0.0,0.0,-22.5));
#308=DIRECTION('',(0.0,0.0,-1.0));
#309=DIRECTION('',(0.0,1.0,0.0));
#310=SURFACE_STYLE_FILL_AREA(#436);
#311=ORIENTED_EDGE('',*,*,#437,.T.);
#312=ORIENTED_EDGE('',*,*,#438,.F.);
#313=ORIENTED_EDGE('',*,*,#439,.T.);
#314=ORIENTED_EDGE('',*,*,#434,.T.);
#315=CARTESIAN_POINT('',(0.0,-45.0,-13.75));
#316=DIRECTION('',(0.0,-1.0,0.0));
#317=DIRECTION('',(0.0,0.0,-1.0));
#318=SURFACE_STYLE_FILL_AREA(#440);
#319=ORIENTED_EDGE('',*,*,#441,.T.);
#320=ORIENTED_EDGE('',*,*,#442,.F.);
#321=ORIENTED_EDGE('',*,*,#443,.T.);
#322=ORIENTED_EDGE('',*,*,#438,.T.);
#323=CARTESIAN_POINT('',(0.0,-37.75,-5.0));
#324=DIRECTION('',(0.0,0.0,1.0));
#325=DIRECTION('',(0.0,-1.0,0.0));
#326=SURFACE_STYLE_FILL_AREA(#444);
#327=ORIENTED_EDGE('',*,*,#445,.T.);
#328=ORIENTED_EDGE('',*,*,#446,.F.);
#329=ORIENTED_EDGE('',*,*,#447,.T.);
#330=ORIENTED_EDGE('',*,*,#442,.T.);
#331=CARTESIAN_POINT('',(0.0,-30.5,0.0));
#332=DIRECTION('',(0.0,-1.0,0.0));
#333=DIRECTION('',(0.0,0.0,-1.0));
#334=SURFACE_STYLE_FILL_AREA(#448);
#335=ORIENTED_EDGE('',*,*,#449,.T.);
#336=ORIENTED_EDGE('',*,*,#450,.F.);
#337=ORIENTED_EDGE('',*,*,#451,.T.);
#338=ORIENTED_EDGE('',*,*,#446,.T.);
#339=CARTESIAN_POINT('',(0.0,-37.75,5.0));
#340=DIRECTION('',(0.0,0.0,-1.0));
#341=DIRECTION('',(0.0,1.0,0.0));
#342=SURFACE_STYLE_FILL_AREA(#452);
#343=ORIENTED_EDGE('',*,*,#453,.T.);
#344=ORIENTED_EDGE('',*,*,#411,.F.);
#345=ORIENTED_EDGE('',*,*,#454,.T.);
#346=ORIENTED_EDGE('',*,*,#450,.T.);
#347=CARTESIAN_POINT('',(0.0,-45.0,13.75));
#348=DIRECTION('',(0.0,-1.0,0.0));
#349=DIRECTION('',(0.0,0.0,-1.0));
#350=SURFACE_STYLE_FILL_AREA(#455);
#351=ORIENTED_EDGE('',*,*,#400,.T.);
#352=ORIENTED_EDGE('',*,*,#402,.T.);
#353=ORIENTED_EDGE('',*,*,#395,.T.);
#354=ORIENTED_EDGE('',*,*,#405,.T.);
#355=ORIENTED_EDGE('',*,*,#454,.F.);
#356=ORIENTED_EDGE('',*,*,#410,.F.);
#357=ORIENTED_EDGE('',*,*,#415,.F.);
#358=ORIENTED_EDGE('',*,*,#419,.F.);
#359=ORIENTED_EDGE('',*,*,#423,.F.);
#360=ORIENTED_EDGE('',*,*,#427,.F.);
#361=ORIENTED_EDGE('',*,*,#431,.F.);
#362=ORIENTED_EDGE('',*,*,#435,.F.);
#363=ORIENTED_EDGE('',*,*,#439,.F.);
#364=ORIENTED_EDGE('',*,*,#443,.F.);
#365=ORIENTED_EDGE('',*,*,#447,.F.);
#366=ORIENTED_EDGE('',*,*,#451,.F.);
#367=CARTESIAN_POINT('',(0.0,2.22044604925031E-016,-2.22044604925031E-016));
#368=DIRECTION('',(1.0,0.0,0.0));
#369=DIRECTION('',(0.0,1.0,0.0));
#370=SURFACE_STYLE_FILL_AREA(#456);
#371=ORIENTED_EDGE('',*,*,#403,.T.);
#372=ORIENTED_EDGE('',*,*,#398,.T.);
#373=ORIENTED_EDGE('',*,*,#406,.T.);
#374=ORIENTED_EDGE('',*,*,#393,.T.);
#375=ORIENTED_EDGE('',*,*,#408,.F.);
#376=ORIENTED_EDGE('',*,*,#453,.F.);
#377=ORIENTED_EDGE('',*,*,#449,.F.);
#378=ORIENTED_EDGE('',*,*,#445,.F.);
#379=ORIENTED_EDGE('',*,*,#441,.F.);
#380=ORIENTED_EDGE('',*,*,#437,.F.);
#381=ORIENTED_EDGE('',*,*,#433,.F.);
#382=ORIENTED_EDGE('',*,*,#429,.F.);
#383=ORIENTED_EDGE('',*,*,#425,.F.);
#384=ORIENTED_EDGE('',*,*,#421,.F.);
#385=ORIENTED_EDGE('',*,*,#417,.F.);
#386=ORIENTED_EDGE('',*,*,#413,.F.);
#387=CARTESIAN_POINT('',(1000.0,4.44089209850063E-016,0.0));
#388=DIRECTION('',(1.0,0.0,0.0));
#389=DIRECTION('',(0.0,1.0,0.0));
#390=SURFACE_STYLE_FILL_AREA(#457);
#391=FILL_AREA_STYLE('',(#458));
#392=EDGE_CURVE('',#459,#460,#461,.T.);
#393=EDGE_CURVE('',#462,#459,#463,.T.);
#394=EDGE_CURVE('',#464,#462,#465,.T.);
#395=EDGE_CURVE('',#460,#464,#466,.T.);
#396=FILL_AREA_STYLE('',(#467));
#397=EDGE_CURVE('',#468,#469,#470,.T.);
#398=EDGE_CURVE('',#471,#468,#472,.T.);
#399=EDGE_CURVE('',#473,#471,#474,.T.);
#400=EDGE_CURVE('',#469,#473,#475,.T.);
#401=FILL_AREA_STYLE('',(#476));
#402=EDGE_CURVE('',#473,#469,#477,.T.);
#403=EDGE_CURVE('',#468,#471,#478,.T.);
#404=FILL_AREA_STYLE('',(#479));
#405=EDGE_CURVE('',#464,#460,#480,.T.);
#406=EDGE_CURVE('',#459,#462,#481,.T.);
#407=FILL_AREA_STYLE('',(#482));
#408=EDGE_CURVE('',#483,#484,#485,.T.);
#409=EDGE_CURVE('',#486,#484,#487,.T.);
#410=EDGE_CURVE('',#486,#488,#489,.T.);
#411=EDGE_CURVE('',#488,#483,#490,.T.);
#412=FILL_AREA_STYLE('',(#491));
#413=EDGE_CURVE('',#484,#492,#493,.T.);
#414=EDGE_CURVE('',#494,#492,#495,.T.);
#415=EDGE_CURVE('',#494,#486,#496,.T.);
#416=FILL_AREA_STYLE('',(#497));
#417=EDGE_CURVE('',#492,#498,#499,.T.);
#418=EDGE_CURVE('',#500,#498,#501,.T.);
#419=EDGE_CURVE('',#500,#494,#502,.T.);
#420=FILL_AREA_STYLE('',(#503));
#421=EDGE_CURVE('',#498,#504,#505,.T.);
#422=EDGE_CURVE('',#506,#504,#507,.T.);
#423=EDGE_CURVE('',#506,#500,#508,.T.);
#424=FILL_AREA_STYLE('',(#509));
#425=EDGE_CURVE('',#504,#510,#511,.T.);
#426=EDGE_CURVE('',#512,#510,#513,.T.);
#427=EDGE_CURVE('',#512,#506,#514,.T.);
#428=FILL_AREA_STYLE('',(#515));
#429=EDGE_CURVE('',#510,#516,#517,.T.);
#430=EDGE_CURVE('',#518,#516,#519,.T.);
#431=EDGE_CURVE('',#518,#512,#520,.T.);
#432=FILL_AREA_STYLE('',(#521));
#433=EDGE_CURVE('',#516,#522,#523,.T.);
#434=EDGE_CURVE('',#524,#522,#525,.T.);
#435=EDGE_CURVE('',#524,#518,#526,.T.);
#436=FILL_AREA_STYLE('',(#527));
#437=EDGE_CURVE('',#522,#528,#529,.T.);
#438=EDGE_CURVE('',#530,#528,#531,.T.);
#439=EDGE_CURVE('',#530,#524,#532,.T.);
#440=FILL_AREA_STYLE('',(#533));
#441=EDGE_CURVE('',#528,#534,#535,.T.);
#442=EDGE_CURVE('',#536,#534,#537,.T.);
#443=EDGE_CURVE('',#536,#530,#538,.T.);
#444=FILL_AREA_STYLE('',(#539));
#445=EDGE_CURVE('',#534,#540,#541,.T.);
#446=EDGE_CURVE('',#542,#540,#543,.T.);
#447=EDGE_CURVE('',#542,#536,#544,.T.);
#448=FILL_AREA_STYLE('',(#545));
#449=EDGE_CURVE('',#540,#546,#547,.T.);
#450=EDGE_CURVE('',#548,#546,#549,.T.);
#451=EDGE_CURVE('',#548,#542,#550,.T.);
#452=FILL_AREA_STYLE('',(#551));
#453=EDGE_CURVE('',#546,#483,#552,.T.);
#454=EDGE_CURVE('',#488,#548,#553,.T.);
#455=FILL_AREA_STYLE('',(#554));
#456=FILL_AREA_STYLE('',(#555));
#457=FILL_AREA_STYLE('',(#556));
#458=FILL_AREA_STYLE_COLOUR('',#557);
#459=VERTEX_POINT('',#558);
#460=VERTEX_POINT('',#559);
#461=LINE('',#560,#561);
#462=VERTEX_POINT('',#562);
#463=CIRCLE('',#563,5.0);
#464=VERTEX_POINT('',#564);
#465=LINE('',#565,#566);
#466=CIRCLE('',#567,5.0);
#467=FILL_AREA_STYLE_COLOUR('',#568);
#468=VERTEX_POINT('',#569);
#469=VERTEX_POINT('',#570);
#470=LINE('',#571,#572);
#471=VERTEX_POINT('',#573);
#472=CIRCLE('',#574,5.0);
#473=VERTEX_POINT('',#575);
#474=LINE('',#576,#577);
#475=CIRCLE('',#578,5.0);
#476=FILL_AREA_STYLE_COLOUR('',#579);
#477=CIRCLE('',#580,5.0);
#478=CIRCLE('',#581,5.0);
#479=FILL_AREA_STYLE_COLOUR('',#582);
#480=CIRCLE('',#583,5.0);
#481=CIRCLE('',#584,5.0);
#482=FILL_AREA_STYLE_COLOUR('',#585);
#483=VERTEX_POINT('',#586);
#484=VERTEX_POINT('',#587);
#485=LINE('',#588,#589);
#486=VERTEX_POINT('',#590);
#487=LINE('',#591,#592);
#488=VERTEX_POINT('',#593);
#489=LINE('',#594,#595);
#490=LINE('',#596,#597);
#491=FILL_AREA_STYLE_COLOUR('',#598);
#492=VERTEX_POINT('',#599);
#493=LINE('',#600,#601);
#494=VERTEX_POINT('',#602);
#495=LINE('',#603,#604);
#496=LINE('',#605,#606);
#497=FILL_AREA_STYLE_COLOUR('',#607);
#498=VERTEX_POINT('',#608);
#499=LINE('',#609,#610);
#500=VERTEX_POINT('',#611);
#501=LINE('',#612,#613);
#502=LINE('',#614,#615);
#503=FILL_AREA_STYLE_COLOUR('',#616);
#504=VERTEX_POINT('',#617);
#505=LINE('',#618,#619);
#506=VERTEX_POINT('',#620);
#507=LINE('',#621,#622);
#508=LINE('',#623,#624);
#509=FILL_AREA_STYLE_COLOUR('',#625);
#510=VERTEX_POINT('',#626);
#511=LINE('',#627,#628);
#512=VERTEX_POINT('',#629);
#513=LINE('',#630,#631);
#514=LINE('',#632,#633);
#515=FILL_AREA_STYLE_COLOUR('',#634);
#516=VERTEX_POINT('',#635);
#517=LINE('',#636,#637);
#518=VERTEX_POINT('',#638);
#519=LINE('',#639,#640);
#520=LINE('',#641,#642);
#521=FILL_AREA_STYLE_COLOUR('',#643);
#522=VERTEX_POINT('',#644);
#523=LINE('',#645,#646);
#524=VERTEX_POINT('',#647);
#525=LINE('',#648,#649);
#526=LINE('',#650,#651);
#527=FILL_AREA_STYLE_COLOUR('',#652);
#528=VERTEX_POINT('',#653);
#529=LINE('',#654,#655);
#530=VERTEX_POINT('',#656);
#531=LINE('',#657,#658);
#532=LINE('',#659,#660);
#533=FILL_AREA_STYLE_COLOUR('',#661);
#534=VERTEX_POINT('',#662);
#535=LINE('',#663,#664);
#536=VERTEX_POINT('',#665);
#537=LINE('',#666,#667);
#538=LINE('',#668,#669);
#539=FILL_AREA_STYLE_COLOUR('',#670);
#540=VERTEX_POINT('',#671);
#541=LINE('',#672,#673);
#542=VERTEX_POINT('',#674);
#543=LINE('',#675,#676);
#544=LINE('',#677,#678);
#545=FILL_AREA_STYLE_COLOUR('',#679);
#546=VERTEX_POINT('',#680);
#547=LINE('',#681,#682);
#548=VERTEX_POINT('',#683);
#549=LINE('',#684,#685);
#550=LINE('',#686,#687);
#551=FILL_AREA_STYLE_COLOUR('',#688);
#552=LINE('',#689,#690);
#553=LINE('',#691,#692);
#554=FILL_AREA_STYLE_COLOUR('',#693);
#555=FILL_AREA_STYLE_COLOUR('',#694);
#556=FILL_AREA_STYLE_COLOUR('',#695);
#557=COLOUR_RGB('',0.509803950786591,0.509803950786591,0.588235318660736);
#558=CARTESIAN_POINT('',(1000.0,-22.5,-5.0));
#559=CARTESIAN_POINT('',(0.0,-22.5,-5.0));
#560=CARTESIAN_POINT('',(500.0,-22.5,-5.0));
#561=VECTOR('',#696,1.0);
#562=CARTESIAN_POINT('',(1000.0,-22.5,5.0));
#563=AXIS2_PLACEMENT_3D('',#697,#698,#699);
#564=CARTESIAN_POINT('',(0.0,-22.5,5.0));
#565=CARTESIAN_POINT('',(500.0,-22.5,5.0));
#566=VECTOR('',#700,1.0);
#567=AXIS2_PLACEMENT_3D('',#701,#702,#703);
#568=COLOUR_RGB('',0.509803950786591,0.509803950786591,0.588235318660736);
#569=CARTESIAN_POINT('',(1000.0,22.5,-5.0));
#570=CARTESIAN_POINT('',(0.0,22.5,-5.0));
#571=CARTESIAN_POINT('',(500.0,22.5,-5.0));
#572=VECTOR('',#704,1.0);
#573=CARTESIAN_POINT('',(1000.0,22.5,5.0));
#574=AXIS2_PLACEMENT_3D('',#705,#706,#707);
#575=CARTESIAN_POINT('',(0.0,22.5,5.0));
#576=CARTESIAN_POINT('',(500.0,22.5,5.0));
#577=VECTOR('',#708,1.0);
#578=AXIS2_PLACEMENT_3D('',#709,#710,#711);
#579=COLOUR_RGB('',0.509803950786591,0.509803950786591,0.588235318660736);
#580=AXIS2_PLACEMENT_3D('',#712,#713,#714);
#581=AXIS2_PLACEMENT_3D('',#715,#716,#717);
#582=COLOUR_RGB('',0.509803950786591,0.509803950786591,0.588235318660736);
#583=AXIS2_PLACEMENT_3D('',#718,#719,#720);
#584=AXIS2_PLACEMENT_3D('',#721,#722,#723);
#585=COLOUR_RGB('',0.509803950786591,0.509803950786591,0.588235318660736);
#586=CARTESIAN_POINT('',(1000.0,-45.0,22.5));
#587=CARTESIAN_POINT('',(1000.0,45.0,22.5));
#588=CARTESIAN_POINT('',(1000.0,45.0,22.5));
#589=VECTOR('',#724,1.0);
#590=CARTESIAN_POINT('',(0.0,45.0,22.5));
#591=CARTESIAN_POINT('',(0.0,45.0,22.5));
#592=VECTOR('',#725,1.0);
#593=CARTESIAN_POINT('',(0.0,-45.0,22.5));
#594=CARTESIAN_POINT('',(0.0,45.0,22.5));
#595=VECTOR('',#726,1.0);
#596=CARTESIAN_POINT('',(0.0,-45.0,22.5));
#597=VECTOR('',#727,1.0);
#598=COLOUR_RGB('',0.509803950786591,0.509803950786591,0.588235318660736);
#599=CARTESIAN_POINT('',(1000.0,45.0,5.0));
#600=CARTESIAN_POINT('',(1000.0,45.0,5.0));
#601=VECTOR('',#728,1.0);
#602=CARTESIAN_POINT('',(0.0,45.0,5.0));
#603=CARTESIAN_POINT('',(0.0,45.0,5.0));
#604=VECTOR('',#729,1.0);
#605=CARTESIAN_POINT('',(0.0,45.0,5.0));
#606=VECTOR('',#730,1.0);
#607=COLOUR_RGB('',0.509803950786591,0.509803950786591,0.588235318660736);
#608=CARTESIAN_POINT('',(1000.0,30.5,5.0));
#609=CARTESIAN_POINT('',(1000.0,30.5,5.0));
#610=VECTOR('',#731,1.0);
#611=CARTESIAN_POINT('',(0.0,30.5,5.0));
#612=CARTESIAN_POINT('',(0.0,30.5,5.0));
#613=VECTOR('',#732,1.0);
#614=CARTESIAN_POINT('',(0.0,30.5,5.0));
#615=VECTOR('',#733,1.0);
#616=COLOUR_RGB('',0.509803950786591,0.509803950786591,0.588235318660736);
#617=CARTESIAN_POINT('',(1000.0,30.5,-5.0));
#618=CARTESIAN_POINT('',(1000.0,30.5,-5.0));
#619=VECTOR('',#734,1.0);
#620=CARTESIAN_POINT('',(0.0,30.5,-5.0));
#621=CARTESIAN_POINT('',(0.0,30.5,-5.0));
#622=VECTOR('',#735,1.0);
#623=CARTESIAN_POINT('',(0.0,30.5,-5.0));
#624=VECTOR('',#736,1.0);
#625=COLOUR_RGB('',0.509803950786591,0.509803950786591,0.588235318660736);
#626=CARTESIAN_POINT('',(1000.0,45.0,-5.0));
#627=CARTESIAN_POINT('',(1000.0,45.0,-5.0));
#628=VECTOR('',#737,1.0);
#629=CARTESIAN_POINT('',(0.0,45.0,-5.0));
#630=CARTESIAN_POINT('',(0.0,45.0,-5.0));
#631=VECTOR('',#738,1.0);
#632=CARTESIAN_POINT('',(0.0,45.0,-5.0));
#633=VECTOR('',#739,1.0);
#634=COLOUR_RGB('',0.509803950786591,0.509803950786591,0.588235318660736);
#635=CARTESIAN_POINT('',(1000.0,45.0,-22.5));
#636=CARTESIAN_POINT('',(1000.0,45.0,-22.5));
#637=VECTOR('',#740,1.0);
#638=CARTESIAN_POINT('',(0.0,45.0,-22.5));
#639=CARTESIAN_POINT('',(0.0,45.0,-22.5));
#640=VECTOR('',#741,1.0);
#641=CARTESIAN_POINT('',(0.0,45.0,-22.5));
#642=VECTOR('',#742,1.0);
#643=COLOUR_RGB('',0.509803950786591,0.509803950786591,0.588235318660736);
#644=CARTESIAN_POINT('',(1000.0,-45.0,-22.5));
#645=CARTESIAN_POINT('',(1000.0,-45.0,-22.5));
#646=VECTOR('',#743,1.0);
#647=CARTESIAN_POINT('',(0.0,-45.0,-22.5));
#648=CARTESIAN_POINT('',(0.0,-45.0,-22.5));
#649=VECTOR('',#744,1.0);
#650=CARTESIAN_POINT('',(0.0,-45.0,-22.5));
#651=VECTOR('',#745,1.0);
#652=COLOUR_RGB('',0.509803950786591,0.509803950786591,0.588235318660736);
#653=CARTESIAN_POINT('',(1000.0,-45.0,-5.0));
#654=CARTESIAN_POINT('',(1000.0,-45.0,-5.0));
#655=VECTOR('',#746,1.0);
#656=CARTESIAN_POINT('',(0.0,-45.0,-5.0));
#657=CARTESIAN_POINT('',(0.0,-45.0,-5.0));
#658=VECTOR('',#747,1.0);
#659=CARTESIAN_POINT('',(0.0,-45.0,-5.0));
#660=VECTOR('',#748,1.0);
#661=COLOUR_RGB('',0.509803950786591,0.509803950786591,0.588235318660736);
#662=CARTESIAN_POINT('',(1000.0,-30.5,-5.0));
#663=CARTESIAN_POINT('',(1000.0,-30.5,-5.0));
#664=VECTOR('',#749,1.0);
#665=CARTESIAN_POINT('',(0.0,-30.5,-5.0));
#666=CARTESIAN_POINT('',(0.0,-30.5,-5.0));
#667=VECTOR('',#750,1.0);
#668=CARTESIAN_POINT('',(0.0,-30.5,-5.0));
#669=VECTOR('',#751,1.0);
#670=COLOUR_RGB('',0.509803950786591,0.509803950786591,0.588235318660736);
#671=CARTESIAN_POINT('',(1000.0,-30.5,5.0));
#672=CARTESIAN_POINT('',(1000.0,-30.5,5.0));
#673=VECTOR('',#752,1.0);
#674=CARTESIAN_POINT('',(0.0,-30.5,5.0));
#675=CARTESIAN_POINT('',(0.0,-30.5,5.0));
#676=VECTOR('',#753,1.0);
#677=CARTESIAN_POINT('',(0.0,-30.5,5.0));
#678=VECTOR('',#754,1.0);
#679=COLOUR_RGB('',0.509803950786591,0.509803950786591,0.588235318660736);
#680=CARTESIAN_POINT('',(1000.0,-45.0,5.0));
#681=CARTESIAN_POINT('',(1000.0,-45.0,5.0));
#682=VECTOR('',#755,1.0);
#683=CARTESIAN_POINT('',(0.0,-45.0,5.0));
#684=CARTESIAN_POINT('',(0.0,-45.0,5.0));
#685=VECTOR('',#756,1.0);
#686=CARTESIAN_POINT('',(0.0,-45.0,5.0));
#687=VECTOR('',#757,1.0);
#688=COLOUR_RGB('',0.509803950786591,0.509803950786591,0.588235318660736);
#689=CARTESIAN_POINT('',(1000.0,-45.0,22.5));
#690=VECTOR('',#758,1.0);
#691=CARTESIAN_POINT('',(0.0,-45.0,22.5));
#692=VECTOR('',#759,1.0);
#693=COLOUR_RGB('',0.509803950786591,0.509803950786591,0.588235318660736);
#694=COLOUR_RGB('',0.509803950786591,0.509803950786591,0.588235318660736);
#695=COLOUR_RGB('',0.509803950786591,0.509803950786591,0.588235318660736);
#696=DIRECTION('',(-1.0,-0.0,0.0));
#697=CARTESIAN_POINT('',(1000.0,-22.5,0.0));
#698=DIRECTION('',(-1.0,-0.0,-0.0));
#699=DIRECTION('',(0.0,0.0,-1.0));
#700=DIRECTION('',(1.0,0.0,0.0));
#701=CARTESIAN_POINT('',(0.0,-22.5,0.0));
#702=DIRECTION('',(1.0,0.0,0.0));
#703=DIRECTION('',(0.0,0.0,-1.0));
#704=DIRECTION('',(-1.0,-0.0,0.0));
#705=CARTESIAN_POINT('',(1000.0,22.5,0.0));
#706=DIRECTION('',(-1.0,-0.0,-0.0));
#707=DIRECTION('',(0.0,0.0,-1.0));
#708=DIRECTION('',(1.0,0.0,0.0));
#709=CARTESIAN_POINT('',(0.0,22.5,0.0));
#710=DIRECTION('',(1.0,0.0,0.0));
#711=DIRECTION('',(0.0,0.0,-1.0));
#712=CARTESIAN_POINT('',(0.0,22.5,0.0));
#713=DIRECTION('',(1.0,0.0,0.0));
#714=DIRECTION('',(0.0,0.0,-1.0));
#715=CARTESIAN_POINT('',(1000.0,22.5,0.0));
#716=DIRECTION('',(-1.0,-0.0,-0.0));
#717=DIRECTION('',(0.0,0.0,-1.0));
#718=CARTESIAN_POINT('',(0.0,-22.5,0.0));
#719=DIRECTION('',(1.0,0.0,0.0));
#720=DIRECTION('',(0.0,0.0,-1.0));
#721=CARTESIAN_POINT('',(1000.0,-22.5,0.0));
#722=DIRECTION('',(-1.0,-0.0,-0.0));
#723=DIRECTION('',(0.0,0.0,-1.0));
#724=DIRECTION('',(0.0,1.0,0.0));
#725=DIRECTION('',(1.0,0.0,0.0));
#726=DIRECTION('',(0.0,-1.0,0.0));
#727=DIRECTION('',(1.0,0.0,0.0));
#728=DIRECTION('',(-0.0,-0.0,-1.0));
#729=DIRECTION('',(1.0,0.0,0.0));
#730=DIRECTION('',(0.0,0.0,1.0));
#731=DIRECTION('',(-0.0,-1.0,-0.0));
#732=DIRECTION('',(1.0,0.0,0.0));
#733=DIRECTION('',(0.0,1.0,0.0));
#734=DIRECTION('',(-0.0,-0.0,-1.0));
#735=DIRECTION('',(1.0,0.0,0.0));
#736=DIRECTION('',(0.0,0.0,1.0));
#737=DIRECTION('',(0.0,1.0,0.0));
#738=DIRECTION('',(1.0,0.0,0.0));
#739=DIRECTION('',(0.0,-1.0,0.0));
#740=DIRECTION('',(-0.0,-0.0,-1.0));
#741=DIRECTION('',(1.0,0.0,0.0));
#742=DIRECTION('',(0.0,0.0,1.0));
#743=DIRECTION('',(-0.0,-1.0,-0.0));
#744=DIRECTION('',(1.0,0.0,0.0));
#745=DIRECTION('',(0.0,1.0,0.0));
#746=DIRECTION('',(0.0,0.0,1.0));
#747=DIRECTION('',(1.0,0.0,0.0));
#748=DIRECTION('',(0.0,0.0,-1.0));
#749=DIRECTION('',(0.0,1.0,0.0));
#750=DIRECTION('',(1.0,0.0,0.0));
#751=DIRECTION('',(0.0,-1.0,0.0));
#752=DIRECTION('',(0.0,0.0,1.0));
#753=DIRECTION('',(1.0,0.0,0.0));
#754=DIRECTION('',(0.0,0.0,-1.0));
#755=DIRECTION('',(-0.0,-1.0,-0.0));
#756=DIRECTION('',(1.0,0.0,0.0));
#757=DIRECTION('',(0.0,1.0,0.0));
#758=DIRECTION('',(0.0,0.0,1.0));
#759=DIRECTION('',(0.0,0.0,-1.0));
ENDSEC;
END-ISO-10303-21;
