ISO-10303-21;
HEADER;
FILE_DESCRIPTION(('STEP AP214'),'1');
FILE_NAME('cctmp_C16B3838-BFA4-4E14-99C8-999961A1B38D_2020_1_20_10_35_24_344..stp','2020-01-20T09:35:24',('Bosch Rexroth AG'),('CADClick - www.CADClick.com'),'Spatial InterOp 3D',' ','unknown authorization - (Healing Option Enabled)');
FILE_SCHEMA(('AUTOMOTIVE_DESIGN'));
ENDSEC;
DATA;
#1=MECHANICAL_DESIGN_GEOMETRIC_PRESENTATION_REPRESENTATION(' ',(#10,#11,#12,#13,#14,#15,#16,#17,#18,#19,#20,#21,#22,#23,#24,#25,#26),#6);
#2=PRODUCT_DEFINITION_CONTEXT('',#27,'design');
#3=APPLICATION_PROTOCOL_DEFINITION('INTERNATIONAL STANDARD','automotive_design',1994,#27);
#4=PRODUCT_CATEGORY_RELATIONSHIP('NONE','NONE',#28,#29);
#5=SHAPE_DEFINITION_REPRESENTATION(#30,#31);
#6= (GEOMETRIC_REPRESENTATION_CONTEXT(3)GLOBAL_UNCERTAINTY_ASSIGNED_CONTEXT((#34))GLOBAL_UNIT_ASSIGNED_CONTEXT((#36,#37,#38))REPRESENTATION_CONTEXT('NONE','WORKSPACE'));
#10=STYLED_ITEM('',(#40),#41);
#11=STYLED_ITEM('',(#42),#43);
#12=STYLED_ITEM('',(#44),#45);
#13=STYLED_ITEM('',(#46),#47);
#14=STYLED_ITEM('',(#48),#49);
#15=STYLED_ITEM('',(#50),#51);
#16=STYLED_ITEM('',(#52),#53);
#17=STYLED_ITEM('',(#54),#55);
#18=STYLED_ITEM('',(#56),#57);
#19=STYLED_ITEM('',(#58),#59);
#20=STYLED_ITEM('',(#60),#61);
#21=STYLED_ITEM('',(#62),#63);
#22=STYLED_ITEM('',(#64),#65);
#23=STYLED_ITEM('',(#66),#67);
#24=STYLED_ITEM('',(#68),#69);
#25=STYLED_ITEM('',(#70),#71);
#26=STYLED_ITEM('',(#72),#73);
#27=APPLICATION_CONTEXT(' ');
#28=PRODUCT_CATEGORY('part','NONE');
#29=PRODUCT_RELATED_PRODUCT_CATEGORY('detail',' ',(#74));
#30=PRODUCT_DEFINITION_SHAPE('NONE','NONE',#75);
#31=ADVANCED_BREP_SHAPE_REPRESENTATION('2020_01_20__10-35-24-344',(#73,#76),#6);
#34=UNCERTAINTY_MEASURE_WITH_UNIT(LENGTH_MEASURE(1.0E-006),#36,'','');
#36= (CONVERSION_BASED_UNIT('MILLIMETRE',#79)LENGTH_UNIT()NAMED_UNIT(#82));
#37= (NAMED_UNIT(#84)PLANE_ANGLE_UNIT()SI_UNIT($,.RADIAN.));
#38= (NAMED_UNIT(#84)SOLID_ANGLE_UNIT()SI_UNIT($,.STERADIAN.));
#40=PRESENTATION_STYLE_ASSIGNMENT((#90));
#41=ADVANCED_FACE('',(#91),#92,.F.);
#42=PRESENTATION_STYLE_ASSIGNMENT((#93));
#43=ADVANCED_FACE('',(#94),#95,.F.);
#44=PRESENTATION_STYLE_ASSIGNMENT((#96));
#45=ADVANCED_FACE('',(#97),#98,.T.);
#46=PRESENTATION_STYLE_ASSIGNMENT((#99));
#47=ADVANCED_FACE('',(#100),#101,.T.);
#48=PRESENTATION_STYLE_ASSIGNMENT((#102));
#49=ADVANCED_FACE('',(#103),#104,.T.);
#50=PRESENTATION_STYLE_ASSIGNMENT((#105));
#51=ADVANCED_FACE('',(#106),#107,.T.);
#52=PRESENTATION_STYLE_ASSIGNMENT((#108));
#53=ADVANCED_FACE('',(#109),#110,.T.);
#54=PRESENTATION_STYLE_ASSIGNMENT((#111));
#55=ADVANCED_FACE('',(#112),#113,.T.);
#56=PRESENTATION_STYLE_ASSIGNMENT((#114));
#57=ADVANCED_FACE('',(#115),#116,.T.);
#58=PRESENTATION_STYLE_ASSIGNMENT((#117));
#59=ADVANCED_FACE('',(#118),#119,.T.);
#60=PRESENTATION_STYLE_ASSIGNMENT((#120));
#61=ADVANCED_FACE('',(#121),#122,.T.);
#62=PRESENTATION_STYLE_ASSIGNMENT((#123));
#63=ADVANCED_FACE('',(#124),#125,.T.);
#64=PRESENTATION_STYLE_ASSIGNMENT((#126));
#65=ADVANCED_FACE('',(#127),#128,.T.);
#66=PRESENTATION_STYLE_ASSIGNMENT((#129));
#67=ADVANCED_FACE('',(#130),#131,.T.);
#68=PRESENTATION_STYLE_ASSIGNMENT((#132));
#69=ADVANCED_FACE('',(#133,#134),#135,.F.);
#70=PRESENTATION_STYLE_ASSIGNMENT((#136));
#71=ADVANCED_FACE('',(#137,#138),#139,.T.);
#72=PRESENTATION_STYLE_ASSIGNMENT((#140));
#73=MANIFOLD_SOLID_BREP('2020_01_20__10-35-24-344',#141);
#74=PRODUCT('2020_01_20__10-35-24-344','','PART--DESC',(#142));
#75=PRODUCT_DEFINITION('','NONE',#143,#2);
#76=AXIS2_PLACEMENT_3D('',#144,#145,#146);
#79=LENGTH_MEASURE_WITH_UNIT(LENGTH_MEASURE(1.0),#147);
#82=DIMENSIONAL_EXPONENTS(1.0,0.0,0.0,0.0,0.0,0.0,0.0);
#84=DIMENSIONAL_EXPONENTS(0.0,0.0,0.0,0.0,0.0,0.0,0.0);
#90=SURFACE_STYLE_USAGE(.BOTH.,#148);
#91=FACE_OUTER_BOUND('',#149,.T.);
#92=CYLINDRICAL_SURFACE('',#150,5.0);
#93=SURFACE_STYLE_USAGE(.BOTH.,#151);
#94=FACE_OUTER_BOUND('',#152,.T.);
#95=CYLINDRICAL_SURFACE('',#153,5.0);
#96=SURFACE_STYLE_USAGE(.BOTH.,#154);
#97=FACE_OUTER_BOUND('',#155,.T.);
#98=PLANE('',#156);
#99=SURFACE_STYLE_USAGE(.BOTH.,#157);
#100=FACE_OUTER_BOUND('',#158,.T.);
#101=PLANE('',#159);
#102=SURFACE_STYLE_USAGE(.BOTH.,#160);
#103=FACE_OUTER_BOUND('',#161,.T.);
#104=PLANE('',#162);
#105=SURFACE_STYLE_USAGE(.BOTH.,#163);
#106=FACE_OUTER_BOUND('',#164,.T.);
#107=PLANE('',#165);
#108=SURFACE_STYLE_USAGE(.BOTH.,#166);
#109=FACE_OUTER_BOUND('',#167,.T.);
#110=PLANE('',#168);
#111=SURFACE_STYLE_USAGE(.BOTH.,#169);
#112=FACE_OUTER_BOUND('',#170,.T.);
#113=PLANE('',#171);
#114=SURFACE_STYLE_USAGE(.BOTH.,#172);
#115=FACE_OUTER_BOUND('',#173,.T.);
#116=PLANE('',#174);
#117=SURFACE_STYLE_USAGE(.BOTH.,#175);
#118=FACE_OUTER_BOUND('',#176,.T.);
#119=PLANE('',#177);
#120=SURFACE_STYLE_USAGE(.BOTH.,#178);
#121=FACE_OUTER_BOUND('',#179,.T.);
#122=PLANE('',#180);
#123=SURFACE_STYLE_USAGE(.BOTH.,#181);
#124=FACE_OUTER_BOUND('',#182,.T.);
#125=PLANE('',#183);
#126=SURFACE_STYLE_USAGE(.BOTH.,#184);
#127=FACE_OUTER_BOUND('',#185,.T.);
#128=PLANE('',#186);
#129=SURFACE_STYLE_USAGE(.BOTH.,#187);
#130=FACE_OUTER_BOUND('',#188,.T.);
#131=PLANE('',#189);
#132=SURFACE_STYLE_USAGE(.BOTH.,#190);
#133=FACE_BOUND('',#191,.T.);
#134=FACE_OUTER_BOUND('',#192,.T.);
#135=PLANE('',#193);
#136=SURFACE_STYLE_USAGE(.BOTH.,#194);
#137=FACE_BOUND('',#195,.T.);
#138=FACE_OUTER_BOUND('',#196,.T.);
#139=PLANE('',#197);
#140=SURFACE_STYLE_USAGE(.BOTH.,#198);
#141=CLOSED_SHELL('',(#41,#43,#45,#47,#49,#51,#53,#55,#57,#59,#61,#63,#65,#67,#69,#71));
#142=PRODUCT_CONTEXT('',#27,'mechanical');
#143=PRODUCT_DEFINITION_FORMATION_WITH_SPECIFIED_SOURCE(' ','NONE',#74,.NOT_KNOWN.);
#144=CARTESIAN_POINT('',(0.0,0.0,0.0));
#145=DIRECTION('',(0.0,0.0,1.0));
#146=DIRECTION('',(1.0,0.0,0.0));
#147= (NAMED_UNIT(#82)LENGTH_UNIT()SI_UNIT(.MILLI.,.METRE.));
#148=SURFACE_SIDE_STYLE('',(#200));
#149=EDGE_LOOP('',(#201,#202,#203,#204));
#150=AXIS2_PLACEMENT_3D('',#205,#206,#207);
#151=SURFACE_SIDE_STYLE('',(#208));
#152=EDGE_LOOP('',(#209,#210,#211,#212));
#153=AXIS2_PLACEMENT_3D('',#213,#214,#215);
#154=SURFACE_SIDE_STYLE('',(#216));
#155=EDGE_LOOP('',(#217,#218,#219,#220));
#156=AXIS2_PLACEMENT_3D('',#221,#222,#223);
#157=SURFACE_SIDE_STYLE('',(#224));
#158=EDGE_LOOP('',(#225,#226,#227,#228));
#159=AXIS2_PLACEMENT_3D('',#229,#230,#231);
#160=SURFACE_SIDE_STYLE('',(#232));
#161=EDGE_LOOP('',(#233,#234,#235,#236));
#162=AXIS2_PLACEMENT_3D('',#237,#238,#239);
#163=SURFACE_SIDE_STYLE('',(#240));
#164=EDGE_LOOP('',(#241,#242,#243,#244));
#165=AXIS2_PLACEMENT_3D('',#245,#246,#247);
#166=SURFACE_SIDE_STYLE('',(#248));
#167=EDGE_LOOP('',(#249,#250,#251,#252));
#168=AXIS2_PLACEMENT_3D('',#253,#254,#255);
#169=SURFACE_SIDE_STYLE('',(#256));
#170=EDGE_LOOP('',(#257,#258,#259,#260));
#171=AXIS2_PLACEMENT_3D('',#261,#262,#263);
#172=SURFACE_SIDE_STYLE('',(#264));
#173=EDGE_LOOP('',(#265,#266,#267,#268));
#174=AXIS2_PLACEMENT_3D('',#269,#270,#271);
#175=SURFACE_SIDE_STYLE('',(#272));
#176=EDGE_LOOP('',(#273,#274,#275,#276));
#177=AXIS2_PLACEMENT_3D('',#277,#278,#279);
#178=SURFACE_SIDE_STYLE('',(#280));
#179=EDGE_LOOP('',(#281,#282,#283,#284));
#180=AXIS2_PLACEMENT_3D('',#285,#286,#287);
#181=SURFACE_SIDE_STYLE('',(#288));
#182=EDGE_LOOP('',(#289,#290,#291,#292));
#183=AXIS2_PLACEMENT_3D('',#293,#294,#295);
#184=SURFACE_SIDE_STYLE('',(#296));
#185=EDGE_LOOP('',(#297,#298,#299,#300));
#186=AXIS2_PLACEMENT_3D('',#301,#302,#303);
#187=SURFACE_SIDE_STYLE('',(#304));
#188=EDGE_LOOP('',(#305,#306,#307,#308));
#189=AXIS2_PLACEMENT_3D('',#309,#310,#311);
#190=SURFACE_SIDE_STYLE('',(#312));
#191=EDGE_LOOP('',(#313,#314));
#192=EDGE_LOOP('',(#315,#316,#317,#318,#319,#320,#321,#322,#323,#324,#325,#326));
#193=AXIS2_PLACEMENT_3D('',#327,#328,#329);
#194=SURFACE_SIDE_STYLE('',(#330));
#195=EDGE_LOOP('',(#331,#332));
#196=EDGE_LOOP('',(#333,#334,#335,#336,#337,#338,#339,#340,#341,#342,#343,#344));
#197=AXIS2_PLACEMENT_3D('',#345,#346,#347);
#198=SURFACE_SIDE_STYLE('',(#348));
#200=SURFACE_STYLE_FILL_AREA(#349);
#201=ORIENTED_EDGE('',*,*,#350,.F.);
#202=ORIENTED_EDGE('',*,*,#351,.F.);
#203=ORIENTED_EDGE('',*,*,#352,.F.);
#204=ORIENTED_EDGE('',*,*,#353,.F.);
#205=CARTESIAN_POINT('',(500.0,0.0,0.0));
#206=DIRECTION('',(1.0,0.0,0.0));
#207=DIRECTION('',(0.0,0.0,-1.0));
#208=SURFACE_STYLE_FILL_AREA(#354);
#209=ORIENTED_EDGE('',*,*,#350,.T.);
#210=ORIENTED_EDGE('',*,*,#355,.F.);
#211=ORIENTED_EDGE('',*,*,#352,.T.);
#212=ORIENTED_EDGE('',*,*,#356,.F.);
#213=CARTESIAN_POINT('',(500.0,0.0,0.0));
#214=DIRECTION('',(1.0,0.0,0.0));
#215=DIRECTION('',(0.0,0.0,-1.0));
#216=SURFACE_STYLE_FILL_AREA(#357);
#217=ORIENTED_EDGE('',*,*,#358,.T.);
#218=ORIENTED_EDGE('',*,*,#359,.F.);
#219=ORIENTED_EDGE('',*,*,#360,.T.);
#220=ORIENTED_EDGE('',*,*,#361,.T.);
#221=CARTESIAN_POINT('',(0.0,11.25,0.0));
#222=DIRECTION('',(0.0,1.0,0.0));
#223=DIRECTION('',(0.0,0.0,1.0));
#224=SURFACE_STYLE_FILL_AREA(#362);
#225=ORIENTED_EDGE('',*,*,#363,.T.);
#226=ORIENTED_EDGE('',*,*,#364,.F.);
#227=ORIENTED_EDGE('',*,*,#365,.T.);
#228=ORIENTED_EDGE('',*,*,#359,.T.);
#229=CARTESIAN_POINT('',(0.0,8.125,-22.5));
#230=DIRECTION('',(0.0,0.0,-1.0));
#231=DIRECTION('',(0.0,1.0,0.0));
#232=SURFACE_STYLE_FILL_AREA(#366);
#233=ORIENTED_EDGE('',*,*,#367,.T.);
#234=ORIENTED_EDGE('',*,*,#368,.F.);
#235=ORIENTED_EDGE('',*,*,#369,.T.);
#236=ORIENTED_EDGE('',*,*,#364,.T.);
#237=CARTESIAN_POINT('',(0.0,5.0,-16.0));
#238=DIRECTION('',(0.0,-1.0,0.0));
#239=DIRECTION('',(0.0,0.0,-1.0));
#240=SURFACE_STYLE_FILL_AREA(#370);
#241=ORIENTED_EDGE('',*,*,#371,.T.);
#242=ORIENTED_EDGE('',*,*,#372,.F.);
#243=ORIENTED_EDGE('',*,*,#373,.T.);
#244=ORIENTED_EDGE('',*,*,#368,.T.);
#245=CARTESIAN_POINT('',(0.0,0.0,-9.5));
#246=DIRECTION('',(0.0,0.0,-1.0));
#247=DIRECTION('',(0.0,1.0,0.0));
#248=SURFACE_STYLE_FILL_AREA(#374);
#249=ORIENTED_EDGE('',*,*,#375,.T.);
#250=ORIENTED_EDGE('',*,*,#376,.F.);
#251=ORIENTED_EDGE('',*,*,#377,.T.);
#252=ORIENTED_EDGE('',*,*,#372,.T.);
#253=CARTESIAN_POINT('',(0.0,-5.0,-16.0));
#254=DIRECTION('',(0.0,1.0,0.0));
#255=DIRECTION('',(0.0,0.0,1.0));
#256=SURFACE_STYLE_FILL_AREA(#378);
#257=ORIENTED_EDGE('',*,*,#379,.T.);
#258=ORIENTED_EDGE('',*,*,#380,.F.);
#259=ORIENTED_EDGE('',*,*,#381,.T.);
#260=ORIENTED_EDGE('',*,*,#376,.T.);
#261=CARTESIAN_POINT('',(0.0,-8.125,-22.5));
#262=DIRECTION('',(0.0,0.0,-1.0));
#263=DIRECTION('',(0.0,1.0,0.0));
#264=SURFACE_STYLE_FILL_AREA(#382);
#265=ORIENTED_EDGE('',*,*,#383,.T.);
#266=ORIENTED_EDGE('',*,*,#384,.F.);
#267=ORIENTED_EDGE('',*,*,#385,.T.);
#268=ORIENTED_EDGE('',*,*,#380,.T.);
#269=CARTESIAN_POINT('',(0.0,-11.25,0.0));
#270=DIRECTION('',(0.0,-1.0,0.0));
#271=DIRECTION('',(0.0,0.0,-1.0));
#272=SURFACE_STYLE_FILL_AREA(#386);
#273=ORIENTED_EDGE('',*,*,#387,.T.);
#274=ORIENTED_EDGE('',*,*,#388,.F.);
#275=ORIENTED_EDGE('',*,*,#389,.T.);
#276=ORIENTED_EDGE('',*,*,#384,.T.);
#277=CARTESIAN_POINT('',(0.0,-8.125,22.5));
#278=DIRECTION('',(0.0,0.0,1.0));
#279=DIRECTION('',(0.0,-1.0,0.0));
#280=SURFACE_STYLE_FILL_AREA(#390);
#281=ORIENTED_EDGE('',*,*,#391,.T.);
#282=ORIENTED_EDGE('',*,*,#392,.F.);
#283=ORIENTED_EDGE('',*,*,#393,.T.);
#284=ORIENTED_EDGE('',*,*,#388,.T.);
#285=CARTESIAN_POINT('',(0.0,-5.0,16.0));
#286=DIRECTION('',(0.0,1.0,0.0));
#287=DIRECTION('',(0.0,0.0,1.0));
#288=SURFACE_STYLE_FILL_AREA(#394);
#289=ORIENTED_EDGE('',*,*,#395,.T.);
#290=ORIENTED_EDGE('',*,*,#396,.F.);
#291=ORIENTED_EDGE('',*,*,#397,.T.);
#292=ORIENTED_EDGE('',*,*,#392,.T.);
#293=CARTESIAN_POINT('',(0.0,0.0,9.5));
#294=DIRECTION('',(0.0,0.0,1.0));
#295=DIRECTION('',(0.0,-1.0,0.0));
#296=SURFACE_STYLE_FILL_AREA(#398);
#297=ORIENTED_EDGE('',*,*,#399,.T.);
#298=ORIENTED_EDGE('',*,*,#400,.F.);
#299=ORIENTED_EDGE('',*,*,#401,.T.);
#300=ORIENTED_EDGE('',*,*,#396,.T.);
#301=CARTESIAN_POINT('',(0.0,5.0,16.0));
#302=DIRECTION('',(0.0,-1.0,0.0));
#303=DIRECTION('',(0.0,0.0,-1.0));
#304=SURFACE_STYLE_FILL_AREA(#402);
#305=ORIENTED_EDGE('',*,*,#403,.T.);
#306=ORIENTED_EDGE('',*,*,#361,.F.);
#307=ORIENTED_EDGE('',*,*,#404,.T.);
#308=ORIENTED_EDGE('',*,*,#400,.T.);
#309=CARTESIAN_POINT('',(0.0,8.125,22.5));
#310=DIRECTION('',(0.0,0.0,1.0));
#311=DIRECTION('',(0.0,-1.0,0.0));
#312=SURFACE_STYLE_FILL_AREA(#405);
#313=ORIENTED_EDGE('',*,*,#353,.T.);
#314=ORIENTED_EDGE('',*,*,#355,.T.);
#315=ORIENTED_EDGE('',*,*,#404,.F.);
#316=ORIENTED_EDGE('',*,*,#360,.F.);
#317=ORIENTED_EDGE('',*,*,#365,.F.);
#318=ORIENTED_EDGE('',*,*,#369,.F.);
#319=ORIENTED_EDGE('',*,*,#373,.F.);
#320=ORIENTED_EDGE('',*,*,#377,.F.);
#321=ORIENTED_EDGE('',*,*,#381,.F.);
#322=ORIENTED_EDGE('',*,*,#385,.F.);
#323=ORIENTED_EDGE('',*,*,#389,.F.);
#324=ORIENTED_EDGE('',*,*,#393,.F.);
#325=ORIENTED_EDGE('',*,*,#397,.F.);
#326=ORIENTED_EDGE('',*,*,#401,.F.);
#327=CARTESIAN_POINT('',(0.0,-5.55111512312578E-017,2.22044604925031E-016));
#328=DIRECTION('',(1.0,0.0,0.0));
#329=DIRECTION('',(0.0,1.0,0.0));
#330=SURFACE_STYLE_FILL_AREA(#406);
#331=ORIENTED_EDGE('',*,*,#356,.T.);
#332=ORIENTED_EDGE('',*,*,#351,.T.);
#333=ORIENTED_EDGE('',*,*,#358,.F.);
#334=ORIENTED_EDGE('',*,*,#403,.F.);
#335=ORIENTED_EDGE('',*,*,#399,.F.);
#336=ORIENTED_EDGE('',*,*,#395,.F.);
#337=ORIENTED_EDGE('',*,*,#391,.F.);
#338=ORIENTED_EDGE('',*,*,#387,.F.);
#339=ORIENTED_EDGE('',*,*,#383,.F.);
#340=ORIENTED_EDGE('',*,*,#379,.F.);
#341=ORIENTED_EDGE('',*,*,#375,.F.);
#342=ORIENTED_EDGE('',*,*,#371,.F.);
#343=ORIENTED_EDGE('',*,*,#367,.F.);
#344=ORIENTED_EDGE('',*,*,#363,.F.);
#345=CARTESIAN_POINT('',(1000.0,0.0,-3.33066907387547E-016));
#346=DIRECTION('',(1.0,0.0,0.0));
#347=DIRECTION('',(0.0,1.0,0.0));
#348=SURFACE_STYLE_FILL_AREA(#407);
#349=FILL_AREA_STYLE('',(#408));
#350=EDGE_CURVE('',#409,#410,#411,.T.);
#351=EDGE_CURVE('',#412,#409,#413,.T.);
#352=EDGE_CURVE('',#414,#412,#415,.T.);
#353=EDGE_CURVE('',#410,#414,#416,.T.);
#354=FILL_AREA_STYLE('',(#417));
#355=EDGE_CURVE('',#414,#410,#418,.T.);
#356=EDGE_CURVE('',#409,#412,#419,.T.);
#357=FILL_AREA_STYLE('',(#420));
#358=EDGE_CURVE('',#421,#422,#423,.T.);
#359=EDGE_CURVE('',#424,#422,#425,.T.);
#360=EDGE_CURVE('',#424,#426,#427,.T.);
#361=EDGE_CURVE('',#426,#421,#428,.T.);
#362=FILL_AREA_STYLE('',(#429));
#363=EDGE_CURVE('',#422,#430,#431,.T.);
#364=EDGE_CURVE('',#432,#430,#433,.T.);
#365=EDGE_CURVE('',#432,#424,#434,.T.);
#366=FILL_AREA_STYLE('',(#435));
#367=EDGE_CURVE('',#430,#436,#437,.T.);
#368=EDGE_CURVE('',#438,#436,#439,.T.);
#369=EDGE_CURVE('',#438,#432,#440,.T.);
#370=FILL_AREA_STYLE('',(#441));
#371=EDGE_CURVE('',#436,#442,#443,.T.);
#372=EDGE_CURVE('',#444,#442,#445,.T.);
#373=EDGE_CURVE('',#444,#438,#446,.T.);
#374=FILL_AREA_STYLE('',(#447));
#375=EDGE_CURVE('',#442,#448,#449,.T.);
#376=EDGE_CURVE('',#450,#448,#451,.T.);
#377=EDGE_CURVE('',#450,#444,#452,.T.);
#378=FILL_AREA_STYLE('',(#453));
#379=EDGE_CURVE('',#448,#454,#455,.T.);
#380=EDGE_CURVE('',#456,#454,#457,.T.);
#381=EDGE_CURVE('',#456,#450,#458,.T.);
#382=FILL_AREA_STYLE('',(#459));
#383=EDGE_CURVE('',#454,#460,#461,.T.);
#384=EDGE_CURVE('',#462,#460,#463,.T.);
#385=EDGE_CURVE('',#462,#456,#464,.T.);
#386=FILL_AREA_STYLE('',(#465));
#387=EDGE_CURVE('',#460,#466,#467,.T.);
#388=EDGE_CURVE('',#468,#466,#469,.T.);
#389=EDGE_CURVE('',#468,#462,#470,.T.);
#390=FILL_AREA_STYLE('',(#471));
#391=EDGE_CURVE('',#466,#472,#473,.T.);
#392=EDGE_CURVE('',#474,#472,#475,.T.);
#393=EDGE_CURVE('',#474,#468,#476,.T.);
#394=FILL_AREA_STYLE('',(#477));
#395=EDGE_CURVE('',#472,#478,#479,.T.);
#396=EDGE_CURVE('',#480,#478,#481,.T.);
#397=EDGE_CURVE('',#480,#474,#482,.T.);
#398=FILL_AREA_STYLE('',(#483));
#399=EDGE_CURVE('',#478,#484,#485,.T.);
#400=EDGE_CURVE('',#486,#484,#487,.T.);
#401=EDGE_CURVE('',#486,#480,#488,.T.);
#402=FILL_AREA_STYLE('',(#489));
#403=EDGE_CURVE('',#484,#421,#490,.T.);
#404=EDGE_CURVE('',#426,#486,#491,.T.);
#405=FILL_AREA_STYLE('',(#492));
#406=FILL_AREA_STYLE('',(#493));
#407=FILL_AREA_STYLE('',(#494));
#408=FILL_AREA_STYLE_COLOUR('',#495);
#409=VERTEX_POINT('',#496);
#410=VERTEX_POINT('',#497);
#411=LINE('',#498,#499);
#412=VERTEX_POINT('',#500);
#413=CIRCLE('',#501,5.0);
#414=VERTEX_POINT('',#502);
#415=LINE('',#503,#504);
#416=CIRCLE('',#505,5.0);
#417=FILL_AREA_STYLE_COLOUR('',#506);
#418=CIRCLE('',#507,5.0);
#419=CIRCLE('',#508,5.0);
#420=FILL_AREA_STYLE_COLOUR('',#509);
#421=VERTEX_POINT('',#510);
#422=VERTEX_POINT('',#511);
#423=LINE('',#512,#513);
#424=VERTEX_POINT('',#514);
#425=LINE('',#515,#516);
#426=VERTEX_POINT('',#517);
#427=LINE('',#518,#519);
#428=LINE('',#520,#521);
#429=FILL_AREA_STYLE_COLOUR('',#522);
#430=VERTEX_POINT('',#523);
#431=LINE('',#524,#525);
#432=VERTEX_POINT('',#526);
#433=LINE('',#527,#528);
#434=LINE('',#529,#530);
#435=FILL_AREA_STYLE_COLOUR('',#531);
#436=VERTEX_POINT('',#532);
#437=LINE('',#533,#534);
#438=VERTEX_POINT('',#535);
#439=LINE('',#536,#537);
#440=LINE('',#538,#539);
#441=FILL_AREA_STYLE_COLOUR('',#540);
#442=VERTEX_POINT('',#541);
#443=LINE('',#542,#543);
#444=VERTEX_POINT('',#544);
#445=LINE('',#545,#546);
#446=LINE('',#547,#548);
#447=FILL_AREA_STYLE_COLOUR('',#549);
#448=VERTEX_POINT('',#550);
#449=LINE('',#551,#552);
#450=VERTEX_POINT('',#553);
#451=LINE('',#554,#555);
#452=LINE('',#556,#557);
#453=FILL_AREA_STYLE_COLOUR('',#558);
#454=VERTEX_POINT('',#559);
#455=LINE('',#560,#561);
#456=VERTEX_POINT('',#562);
#457=LINE('',#563,#564);
#458=LINE('',#565,#566);
#459=FILL_AREA_STYLE_COLOUR('',#567);
#460=VERTEX_POINT('',#568);
#461=LINE('',#569,#570);
#462=VERTEX_POINT('',#571);
#463=LINE('',#572,#573);
#464=LINE('',#574,#575);
#465=FILL_AREA_STYLE_COLOUR('',#576);
#466=VERTEX_POINT('',#577);
#467=LINE('',#578,#579);
#468=VERTEX_POINT('',#580);
#469=LINE('',#581,#582);
#470=LINE('',#583,#584);
#471=FILL_AREA_STYLE_COLOUR('',#585);
#472=VERTEX_POINT('',#586);
#473=LINE('',#587,#588);
#474=VERTEX_POINT('',#589);
#475=LINE('',#590,#591);
#476=LINE('',#592,#593);
#477=FILL_AREA_STYLE_COLOUR('',#594);
#478=VERTEX_POINT('',#595);
#479=LINE('',#596,#597);
#480=VERTEX_POINT('',#598);
#481=LINE('',#599,#600);
#482=LINE('',#601,#602);
#483=FILL_AREA_STYLE_COLOUR('',#603);
#484=VERTEX_POINT('',#604);
#485=LINE('',#605,#606);
#486=VERTEX_POINT('',#607);
#487=LINE('',#608,#609);
#488=LINE('',#610,#611);
#489=FILL_AREA_STYLE_COLOUR('',#612);
#490=LINE('',#613,#614);
#491=LINE('',#615,#616);
#492=FILL_AREA_STYLE_COLOUR('',#617);
#493=FILL_AREA_STYLE_COLOUR('',#618);
#494=FILL_AREA_STYLE_COLOUR('',#619);
#495=COLOUR_RGB('',0.509803950786591,0.509803950786591,0.588235318660736);
#496=CARTESIAN_POINT('',(1000.0,0.0,-5.0));
#497=CARTESIAN_POINT('',(0.0,0.0,-5.0));
#498=CARTESIAN_POINT('',(500.0,-6.12323399573677E-016,-5.0));
#499=VECTOR('',#620,1.0);
#500=CARTESIAN_POINT('',(1000.0,6.12323399573677E-016,5.0));
#501=AXIS2_PLACEMENT_3D('',#621,#622,#623);
#502=CARTESIAN_POINT('',(0.0,6.12323399573677E-016,5.0));
#503=CARTESIAN_POINT('',(500.0,6.12323399573677E-016,5.0));
#504=VECTOR('',#624,1.0);
#505=AXIS2_PLACEMENT_3D('',#625,#626,#627);
#506=COLOUR_RGB('',0.509803950786591,0.509803950786591,0.588235318660736);
#507=AXIS2_PLACEMENT_3D('',#628,#629,#630);
#508=AXIS2_PLACEMENT_3D('',#631,#632,#633);
#509=COLOUR_RGB('',0.509803950786591,0.509803950786591,0.588235318660736);
#510=CARTESIAN_POINT('',(1000.0,11.25,22.5));
#511=CARTESIAN_POINT('',(1000.0,11.25,-22.5));
#512=CARTESIAN_POINT('',(1000.0,11.25,-22.5));
#513=VECTOR('',#634,1.0);
#514=CARTESIAN_POINT('',(0.0,11.25,-22.5));
#515=CARTESIAN_POINT('',(0.0,11.25,-22.5));
#516=VECTOR('',#635,1.0);
#517=CARTESIAN_POINT('',(0.0,11.25,22.5));
#518=CARTESIAN_POINT('',(0.0,11.25,-22.5));
#519=VECTOR('',#636,1.0);
#520=CARTESIAN_POINT('',(0.0,11.25,22.5));
#521=VECTOR('',#637,1.0);
#522=COLOUR_RGB('',0.509803950786591,0.509803950786591,0.588235318660736);
#523=CARTESIAN_POINT('',(1000.0,5.0,-22.5));
#524=CARTESIAN_POINT('',(1000.0,5.0,-22.5));
#525=VECTOR('',#638,1.0);
#526=CARTESIAN_POINT('',(0.0,5.0,-22.5));
#527=CARTESIAN_POINT('',(0.0,5.0,-22.5));
#528=VECTOR('',#639,1.0);
#529=CARTESIAN_POINT('',(0.0,5.0,-22.5));
#530=VECTOR('',#640,1.0);
#531=COLOUR_RGB('',0.509803950786591,0.509803950786591,0.588235318660736);
#532=CARTESIAN_POINT('',(1000.0,5.0,-9.5));
#533=CARTESIAN_POINT('',(1000.0,5.0,-9.5));
#534=VECTOR('',#641,1.0);
#535=CARTESIAN_POINT('',(0.0,5.0,-9.5));
#536=CARTESIAN_POINT('',(0.0,5.0,-9.5));
#537=VECTOR('',#642,1.0);
#538=CARTESIAN_POINT('',(0.0,5.0,-9.5));
#539=VECTOR('',#643,1.0);
#540=COLOUR_RGB('',0.509803950786591,0.509803950786591,0.588235318660736);
#541=CARTESIAN_POINT('',(1000.0,-5.0,-9.5));
#542=CARTESIAN_POINT('',(1000.0,-5.0,-9.5));
#543=VECTOR('',#644,1.0);
#544=CARTESIAN_POINT('',(0.0,-5.0,-9.5));
#545=CARTESIAN_POINT('',(0.0,-5.0,-9.5));
#546=VECTOR('',#645,1.0);
#547=CARTESIAN_POINT('',(0.0,-5.0,-9.5));
#548=VECTOR('',#646,1.0);
#549=COLOUR_RGB('',0.509803950786591,0.509803950786591,0.588235318660736);
#550=CARTESIAN_POINT('',(1000.0,-5.0,-22.5));
#551=CARTESIAN_POINT('',(1000.0,-5.0,-22.5));
#552=VECTOR('',#647,1.0);
#553=CARTESIAN_POINT('',(0.0,-5.0,-22.5));
#554=CARTESIAN_POINT('',(0.0,-5.0,-22.5));
#555=VECTOR('',#648,1.0);
#556=CARTESIAN_POINT('',(0.0,-5.0,-22.5));
#557=VECTOR('',#649,1.0);
#558=COLOUR_RGB('',0.509803950786591,0.509803950786591,0.588235318660736);
#559=CARTESIAN_POINT('',(1000.0,-11.25,-22.5));
#560=CARTESIAN_POINT('',(1000.0,-11.25,-22.5));
#561=VECTOR('',#650,1.0);
#562=CARTESIAN_POINT('',(0.0,-11.25,-22.5));
#563=CARTESIAN_POINT('',(0.0,-11.25,-22.5));
#564=VECTOR('',#651,1.0);
#565=CARTESIAN_POINT('',(0.0,-11.25,-22.5));
#566=VECTOR('',#652,1.0);
#567=COLOUR_RGB('',0.509803950786591,0.509803950786591,0.588235318660736);
#568=CARTESIAN_POINT('',(1000.0,-11.25,22.5));
#569=CARTESIAN_POINT('',(1000.0,-11.25,22.5));
#570=VECTOR('',#653,1.0);
#571=CARTESIAN_POINT('',(0.0,-11.25,22.5));
#572=CARTESIAN_POINT('',(0.0,-11.25,22.5));
#573=VECTOR('',#654,1.0);
#574=CARTESIAN_POINT('',(0.0,-11.25,22.5));
#575=VECTOR('',#655,1.0);
#576=COLOUR_RGB('',0.509803950786591,0.509803950786591,0.588235318660736);
#577=CARTESIAN_POINT('',(1000.0,-5.0,22.5));
#578=CARTESIAN_POINT('',(1000.0,-5.0,22.5));
#579=VECTOR('',#656,1.0);
#580=CARTESIAN_POINT('',(0.0,-5.0,22.5));
#581=CARTESIAN_POINT('',(0.0,-5.0,22.5));
#582=VECTOR('',#657,1.0);
#583=CARTESIAN_POINT('',(0.0,-5.0,22.5));
#584=VECTOR('',#658,1.0);
#585=COLOUR_RGB('',0.509803950786591,0.509803950786591,0.588235318660736);
#586=CARTESIAN_POINT('',(1000.0,-5.0,9.5));
#587=CARTESIAN_POINT('',(1000.0,-5.0,9.5));
#588=VECTOR('',#659,1.0);
#589=CARTESIAN_POINT('',(0.0,-5.0,9.5));
#590=CARTESIAN_POINT('',(0.0,-5.0,9.5));
#591=VECTOR('',#660,1.0);
#592=CARTESIAN_POINT('',(0.0,-5.0,9.5));
#593=VECTOR('',#661,1.0);
#594=COLOUR_RGB('',0.509803950786591,0.509803950786591,0.588235318660736);
#595=CARTESIAN_POINT('',(1000.0,5.0,9.5));
#596=CARTESIAN_POINT('',(1000.0,5.0,9.5));
#597=VECTOR('',#662,1.0);
#598=CARTESIAN_POINT('',(0.0,5.0,9.5));
#599=CARTESIAN_POINT('',(0.0,5.0,9.5));
#600=VECTOR('',#663,1.0);
#601=CARTESIAN_POINT('',(0.0,5.0,9.5));
#602=VECTOR('',#664,1.0);
#603=COLOUR_RGB('',0.509803950786591,0.509803950786591,0.588235318660736);
#604=CARTESIAN_POINT('',(1000.0,5.0,22.5));
#605=CARTESIAN_POINT('',(1000.0,5.0,22.5));
#606=VECTOR('',#665,1.0);
#607=CARTESIAN_POINT('',(0.0,5.0,22.5));
#608=CARTESIAN_POINT('',(0.0,5.0,22.5));
#609=VECTOR('',#666,1.0);
#610=CARTESIAN_POINT('',(0.0,5.0,22.5));
#611=VECTOR('',#667,1.0);
#612=COLOUR_RGB('',0.509803950786591,0.509803950786591,0.588235318660736);
#613=CARTESIAN_POINT('',(1000.0,11.25,22.5));
#614=VECTOR('',#668,1.0);
#615=CARTESIAN_POINT('',(0.0,11.25,22.5));
#616=VECTOR('',#669,1.0);
#617=COLOUR_RGB('',0.509803950786591,0.509803950786591,0.588235318660736);
#618=COLOUR_RGB('',0.509803950786591,0.509803950786591,0.588235318660736);
#619=COLOUR_RGB('',0.509803950786591,0.509803950786591,0.588235318660736);
#620=DIRECTION('',(-1.0,0.0,0.0));
#621=CARTESIAN_POINT('',(1000.0,0.0,0.0));
#622=DIRECTION('',(-1.0,-0.0,-0.0));
#623=DIRECTION('',(0.0,0.0,-1.0));
#624=DIRECTION('',(1.0,0.0,0.0));
#625=CARTESIAN_POINT('',(0.0,0.0,0.0));
#626=DIRECTION('',(1.0,0.0,0.0));
#627=DIRECTION('',(0.0,0.0,-1.0));
#628=CARTESIAN_POINT('',(0.0,0.0,0.0));
#629=DIRECTION('',(1.0,0.0,0.0));
#630=DIRECTION('',(0.0,0.0,-1.0));
#631=CARTESIAN_POINT('',(1000.0,0.0,0.0));
#632=DIRECTION('',(-1.0,-0.0,-0.0));
#633=DIRECTION('',(0.0,0.0,-1.0));
#634=DIRECTION('',(-0.0,-0.0,-1.0));
#635=DIRECTION('',(1.0,0.0,0.0));
#636=DIRECTION('',(0.0,0.0,1.0));
#637=DIRECTION('',(1.0,0.0,0.0));
#638=DIRECTION('',(-0.0,-1.0,-0.0));
#639=DIRECTION('',(1.0,0.0,0.0));
#640=DIRECTION('',(0.0,1.0,0.0));
#641=DIRECTION('',(0.0,0.0,1.0));
#642=DIRECTION('',(1.0,0.0,0.0));
#643=DIRECTION('',(0.0,0.0,-1.0));
#644=DIRECTION('',(-0.0,-1.0,-0.0));
#645=DIRECTION('',(1.0,0.0,0.0));
#646=DIRECTION('',(0.0,1.0,0.0));
#647=DIRECTION('',(-0.0,-0.0,-1.0));
#648=DIRECTION('',(1.0,0.0,0.0));
#649=DIRECTION('',(0.0,0.0,1.0));
#650=DIRECTION('',(-0.0,-1.0,-0.0));
#651=DIRECTION('',(1.0,0.0,0.0));
#652=DIRECTION('',(0.0,1.0,0.0));
#653=DIRECTION('',(0.0,0.0,1.0));
#654=DIRECTION('',(1.0,0.0,0.0));
#655=DIRECTION('',(0.0,0.0,-1.0));
#656=DIRECTION('',(0.0,1.0,0.0));
#657=DIRECTION('',(1.0,0.0,0.0));
#658=DIRECTION('',(0.0,-1.0,0.0));
#659=DIRECTION('',(-0.0,-0.0,-1.0));
#660=DIRECTION('',(1.0,0.0,0.0));
#661=DIRECTION('',(0.0,0.0,1.0));
#662=DIRECTION('',(0.0,1.0,0.0));
#663=DIRECTION('',(1.0,0.0,0.0));
#664=DIRECTION('',(0.0,-1.0,0.0));
#665=DIRECTION('',(0.0,0.0,1.0));
#666=DIRECTION('',(1.0,0.0,0.0));
#667=DIRECTION('',(0.0,0.0,-1.0));
#668=DIRECTION('',(0.0,1.0,0.0));
#669=DIRECTION('',(0.0,-1.0,0.0));
ENDSEC;
END-ISO-10303-21;
