ISO-10303-21;
HEADER;
FILE_DESCRIPTION(('STEP AP214'),'1');
FILE_NAME('cctmp_C9ACDDCA-7970-498C-B67A-5A46F95B4A2B_2020_1_20_10_29_12_503..stp','2020-01-20T09:29:12',('Bosch Rexroth AG'),('CADClick - www.CADClick.com'),'Spatial InterOp 3D',' ','unknown authorization - (Healing Option Enabled)');
FILE_SCHEMA(('AUTOMOTIVE_DESIGN'));
ENDSEC;
DATA;
#1=MECHANICAL_DESIGN_GEOMETRIC_PRESENTATION_REPRESENTATION(' ',(#10,#11,#12,#13,#14,#15,#16),#6);
#2=PRODUCT_DEFINITION_CONTEXT('',#17,'design');
#3=APPLICATION_PROTOCOL_DEFINITION('INTERNATIONAL STANDARD','automotive_design',1994,#17);
#4=PRODUCT_CATEGORY_RELATIONSHIP('NONE','NONE',#18,#19);
#5=SHAPE_DEFINITION_REPRESENTATION(#20,#21);
#6= (GEOMETRIC_REPRESENTATION_CONTEXT(3)GLOBAL_UNCERTAINTY_ASSIGNED_CONTEXT((#24))GLOBAL_UNIT_ASSIGNED_CONTEXT((#26,#27,#28))REPRESENTATION_CONTEXT('NONE','WORKSPACE'));
#10=STYLED_ITEM('',(#30),#31);
#11=STYLED_ITEM('',(#32),#33);
#12=STYLED_ITEM('',(#34),#35);
#13=STYLED_ITEM('',(#36),#37);
#14=STYLED_ITEM('',(#38),#39);
#15=STYLED_ITEM('',(#40),#41);
#16=STYLED_ITEM('',(#42),#43);
#17=APPLICATION_CONTEXT(' ');
#18=PRODUCT_CATEGORY('part','NONE');
#19=PRODUCT_RELATED_PRODUCT_CATEGORY('detail',' ',(#44));
#20=PRODUCT_DEFINITION_SHAPE('NONE','NONE',#45);
#21=ADVANCED_BREP_SHAPE_REPRESENTATION('2020_01_20__10-29-12-503',(#43,#46),#6);
#24=UNCERTAINTY_MEASURE_WITH_UNIT(LENGTH_MEASURE(1.0E-006),#26,'','');
#26= (CONVERSION_BASED_UNIT('MILLIMETRE',#49)LENGTH_UNIT()NAMED_UNIT(#52));
#27= (NAMED_UNIT(#54)PLANE_ANGLE_UNIT()SI_UNIT($,.RADIAN.));
#28= (NAMED_UNIT(#54)SOLID_ANGLE_UNIT()SI_UNIT($,.STERADIAN.));
#30=PRESENTATION_STYLE_ASSIGNMENT((#60));
#31=ADVANCED_FACE('',(#61),#62,.T.);
#32=PRESENTATION_STYLE_ASSIGNMENT((#63));
#33=ADVANCED_FACE('',(#64),#65,.F.);
#34=PRESENTATION_STYLE_ASSIGNMENT((#66));
#35=ADVANCED_FACE('',(#67),#68,.F.);
#36=PRESENTATION_STYLE_ASSIGNMENT((#69));
#37=ADVANCED_FACE('',(#70),#71,.T.);
#38=PRESENTATION_STYLE_ASSIGNMENT((#72));
#39=ADVANCED_FACE('',(#73,#74),#75,.F.);
#40=PRESENTATION_STYLE_ASSIGNMENT((#76));
#41=ADVANCED_FACE('',(#77,#78),#79,.T.);
#42=PRESENTATION_STYLE_ASSIGNMENT((#80));
#43=MANIFOLD_SOLID_BREP('2020_01_20__10-29-12-503',#81);
#44=PRODUCT('2020_01_20__10-29-12-503','','PART--DESC',(#82));
#45=PRODUCT_DEFINITION('','NONE',#83,#2);
#46=AXIS2_PLACEMENT_3D('',#84,#85,#86);
#49=LENGTH_MEASURE_WITH_UNIT(LENGTH_MEASURE(1.0),#87);
#52=DIMENSIONAL_EXPONENTS(1.0,0.0,0.0,0.0,0.0,0.0,0.0);
#54=DIMENSIONAL_EXPONENTS(0.0,0.0,0.0,0.0,0.0,0.0,0.0);
#60=SURFACE_STYLE_USAGE(.BOTH.,#88);
#61=FACE_OUTER_BOUND('',#89,.T.);
#62=CYLINDRICAL_SURFACE('',#90,9.0);
#63=SURFACE_STYLE_USAGE(.BOTH.,#91);
#64=FACE_OUTER_BOUND('',#92,.T.);
#65=CYLINDRICAL_SURFACE('',#93,6.25);
#66=SURFACE_STYLE_USAGE(.BOTH.,#94);
#67=FACE_OUTER_BOUND('',#95,.T.);
#68=CYLINDRICAL_SURFACE('',#96,6.25);
#69=SURFACE_STYLE_USAGE(.BOTH.,#97);
#70=FACE_OUTER_BOUND('',#98,.T.);
#71=CYLINDRICAL_SURFACE('',#99,9.0);
#72=SURFACE_STYLE_USAGE(.BOTH.,#100);
#73=FACE_OUTER_BOUND('',#101,.T.);
#74=FACE_BOUND('',#102,.T.);
#75=PLANE('',#103);
#76=SURFACE_STYLE_USAGE(.BOTH.,#104);
#77=FACE_OUTER_BOUND('',#105,.T.);
#78=FACE_BOUND('',#106,.T.);
#79=PLANE('',#107);
#80=SURFACE_STYLE_USAGE(.BOTH.,#108);
#81=CLOSED_SHELL('',(#31,#33,#35,#37,#39,#41));
#82=PRODUCT_CONTEXT('',#17,'mechanical');
#83=PRODUCT_DEFINITION_FORMATION_WITH_SPECIFIED_SOURCE(' ','NONE',#44,.NOT_KNOWN.);
#84=CARTESIAN_POINT('',(0.0,0.0,0.0));
#85=DIRECTION('',(0.0,0.0,1.0));
#86=DIRECTION('',(1.0,0.0,0.0));
#87= (NAMED_UNIT(#52)LENGTH_UNIT()SI_UNIT(.MILLI.,.METRE.));
#88=SURFACE_SIDE_STYLE('',(#110));
#89=EDGE_LOOP('',(#111,#112,#113,#114));
#90=AXIS2_PLACEMENT_3D('',#115,#116,#117);
#91=SURFACE_SIDE_STYLE('',(#118));
#92=EDGE_LOOP('',(#119,#120,#121,#122));
#93=AXIS2_PLACEMENT_3D('',#123,#124,#125);
#94=SURFACE_SIDE_STYLE('',(#126));
#95=EDGE_LOOP('',(#127,#128,#129,#130));
#96=AXIS2_PLACEMENT_3D('',#131,#132,#133);
#97=SURFACE_SIDE_STYLE('',(#134));
#98=EDGE_LOOP('',(#135,#136,#137,#138));
#99=AXIS2_PLACEMENT_3D('',#139,#140,#141);
#100=SURFACE_SIDE_STYLE('',(#142));
#101=EDGE_LOOP('',(#143,#144));
#102=EDGE_LOOP('',(#145,#146));
#103=AXIS2_PLACEMENT_3D('',#147,#148,#149);
#104=SURFACE_SIDE_STYLE('',(#150));
#105=EDGE_LOOP('',(#151,#152));
#106=EDGE_LOOP('',(#153,#154));
#107=AXIS2_PLACEMENT_3D('',#155,#156,#157);
#108=SURFACE_SIDE_STYLE('',(#158));
#110=SURFACE_STYLE_FILL_AREA(#159);
#111=ORIENTED_EDGE('',*,*,#160,.F.);
#112=ORIENTED_EDGE('',*,*,#161,.F.);
#113=ORIENTED_EDGE('',*,*,#162,.F.);
#114=ORIENTED_EDGE('',*,*,#163,.T.);
#115=CARTESIAN_POINT('',(7.105427E-015,7.105427E-015,-1.421085E-014));
#116=DIRECTION('',(-1.0,-0.0,0.0));
#117=DIRECTION('',(0.0,-1.0,0.0));
#118=SURFACE_STYLE_FILL_AREA(#164);
#119=ORIENTED_EDGE('',*,*,#165,.F.);
#120=ORIENTED_EDGE('',*,*,#166,.F.);
#121=ORIENTED_EDGE('',*,*,#167,.F.);
#122=ORIENTED_EDGE('',*,*,#168,.F.);
#123=CARTESIAN_POINT('',(7.105427E-015,7.105427E-015,-1.421085E-014));
#124=DIRECTION('',(-1.0,-0.0,0.0));
#125=DIRECTION('',(0.0,-1.0,0.0));
#126=SURFACE_STYLE_FILL_AREA(#169);
#127=ORIENTED_EDGE('',*,*,#165,.T.);
#128=ORIENTED_EDGE('',*,*,#170,.F.);
#129=ORIENTED_EDGE('',*,*,#167,.T.);
#130=ORIENTED_EDGE('',*,*,#171,.F.);
#131=CARTESIAN_POINT('',(7.105427E-015,7.105427E-015,-1.421085E-014));
#132=DIRECTION('',(-1.0,-0.0,0.0));
#133=DIRECTION('',(0.0,-1.0,0.0));
#134=SURFACE_STYLE_FILL_AREA(#172);
#135=ORIENTED_EDGE('',*,*,#160,.T.);
#136=ORIENTED_EDGE('',*,*,#173,.T.);
#137=ORIENTED_EDGE('',*,*,#162,.T.);
#138=ORIENTED_EDGE('',*,*,#174,.F.);
#139=CARTESIAN_POINT('',(7.105427E-015,7.105427E-015,-1.421085E-014));
#140=DIRECTION('',(-1.0,-0.0,0.0));
#141=DIRECTION('',(0.0,-1.0,0.0));
#142=SURFACE_STYLE_FILL_AREA(#175);
#143=ORIENTED_EDGE('',*,*,#173,.F.);
#144=ORIENTED_EDGE('',*,*,#163,.F.);
#145=ORIENTED_EDGE('',*,*,#171,.T.);
#146=ORIENTED_EDGE('',*,*,#166,.T.);
#147=CARTESIAN_POINT('',(4.00000000000001,7.105427E-015,-1.421085E-014));
#148=DIRECTION('',(-1.0,0.0,0.0));
#149=DIRECTION('',(0.0,0.0,1.0));
#150=SURFACE_STYLE_FILL_AREA(#176);
#151=ORIENTED_EDGE('',*,*,#174,.T.);
#152=ORIENTED_EDGE('',*,*,#161,.T.);
#153=ORIENTED_EDGE('',*,*,#168,.T.);
#154=ORIENTED_EDGE('',*,*,#170,.T.);
#155=CARTESIAN_POINT('',(7.105427E-015,7.105427E-015,-1.421085E-014));
#156=DIRECTION('',(-1.0,0.0,0.0));
#157=DIRECTION('',(0.0,0.0,1.0));
#158=SURFACE_STYLE_FILL_AREA(#177);
#159=FILL_AREA_STYLE('',(#178));
#160=EDGE_CURVE('',#179,#180,#181,.T.);
#161=EDGE_CURVE('',#182,#179,#183,.T.);
#162=EDGE_CURVE('',#184,#182,#185,.T.);
#163=EDGE_CURVE('',#184,#180,#186,.T.);
#164=FILL_AREA_STYLE('',(#187));
#165=EDGE_CURVE('',#188,#189,#190,.T.);
#166=EDGE_CURVE('',#191,#188,#192,.T.);
#167=EDGE_CURVE('',#193,#191,#194,.T.);
#168=EDGE_CURVE('',#189,#193,#195,.T.);
#169=FILL_AREA_STYLE('',(#196));
#170=EDGE_CURVE('',#193,#189,#197,.T.);
#171=EDGE_CURVE('',#188,#191,#198,.T.);
#172=FILL_AREA_STYLE('',(#199));
#173=EDGE_CURVE('',#180,#184,#200,.T.);
#174=EDGE_CURVE('',#179,#182,#201,.T.);
#175=FILL_AREA_STYLE('',(#202));
#176=FILL_AREA_STYLE('',(#203));
#177=FILL_AREA_STYLE('',(#204));
#178=FILL_AREA_STYLE_COLOUR('',#205);
#179=VERTEX_POINT('',#206);
#180=VERTEX_POINT('',#207);
#181=LINE('',#208,#209);
#182=VERTEX_POINT('',#210);
#183=CIRCLE('',#211,9.0);
#184=VERTEX_POINT('',#212);
#185=LINE('',#213,#214);
#186=CIRCLE('',#215,9.0);
#187=FILL_AREA_STYLE_COLOUR('',#216);
#188=VERTEX_POINT('',#217);
#189=VERTEX_POINT('',#218);
#190=LINE('',#219,#220);
#191=VERTEX_POINT('',#221);
#192=CIRCLE('',#222,6.25);
#193=VERTEX_POINT('',#223);
#194=LINE('',#224,#225);
#195=CIRCLE('',#226,6.25);
#196=FILL_AREA_STYLE_COLOUR('',#227);
#197=CIRCLE('',#228,6.25);
#198=CIRCLE('',#229,6.25);
#199=FILL_AREA_STYLE_COLOUR('',#230);
#200=CIRCLE('',#231,9.0);
#201=CIRCLE('',#232,9.0);
#202=FILL_AREA_STYLE_COLOUR('',#233);
#203=FILL_AREA_STYLE_COLOUR('',#234);
#204=FILL_AREA_STYLE_COLOUR('',#235);
#205=COLOUR_RGB('',0.752941191196442,0.752941191196442,0.752941191196442);
#206=CARTESIAN_POINT('',(7.105427E-015,-8.99999999999999,-1.421085E-014));
#207=CARTESIAN_POINT('',(4.00000000000001,-8.99999999999999,-1.421085E-014));
#208=CARTESIAN_POINT('',(7.105427357601E-015,-8.99999999999999,-1.53130321192326E-014));
#209=VECTOR('',#236,1.0);
#210=CARTESIAN_POINT('',(7.105427357601E-015,9.00000000000001,-1.31086678807674E-014));
#211=AXIS2_PLACEMENT_3D('',#237,#238,#239);
#212=CARTESIAN_POINT('',(4.00000000000001,9.00000000000001,-1.31086678807674E-014));
#213=CARTESIAN_POINT('',(7.105427357601E-015,9.00000000000001,-1.31086678807674E-014));
#214=VECTOR('',#240,1.0);
#215=AXIS2_PLACEMENT_3D('',#241,#242,#243);
#216=COLOUR_RGB('',0.752941191196442,0.752941191196442,0.752941191196442);
#217=CARTESIAN_POINT('',(4.00000000000001,-6.24999999999999,-1.421085E-014));
#218=CARTESIAN_POINT('',(7.105427E-015,-6.24999999999999,-1.421085E-014));
#219=CARTESIAN_POINT('',(7.105427357601E-015,-6.24999999999999,-1.49762542494671E-014));
#220=VECTOR('',#244,1.0);
#221=CARTESIAN_POINT('',(4.00000000000001,6.25000000000001,-1.34454457505329E-014));
#222=AXIS2_PLACEMENT_3D('',#245,#246,#247);
#223=CARTESIAN_POINT('',(7.105427357601E-015,6.25000000000001,-1.34454457505329E-014));
#224=CARTESIAN_POINT('',(7.105427357601E-015,6.25000000000001,-1.34454457505329E-014));
#225=VECTOR('',#248,1.0);
#226=AXIS2_PLACEMENT_3D('',#249,#250,#251);
#227=COLOUR_RGB('',0.752941191196442,0.752941191196442,0.752941191196442);
#228=AXIS2_PLACEMENT_3D('',#252,#253,#254);
#229=AXIS2_PLACEMENT_3D('',#255,#256,#257);
#230=COLOUR_RGB('',0.752941191196442,0.752941191196442,0.752941191196442);
#231=AXIS2_PLACEMENT_3D('',#258,#259,#260);
#232=AXIS2_PLACEMENT_3D('',#261,#262,#263);
#233=COLOUR_RGB('',0.752941191196442,0.752941191196442,0.752941191196442);
#234=COLOUR_RGB('',0.752941191196442,0.752941191196442,0.752941191196442);
#235=COLOUR_RGB('',0.752941012382507,0.752941012382507,0.752941012382507);
#236=DIRECTION('',(1.0,-0.0,-0.0));
#237=CARTESIAN_POINT('',(7.105427E-015,7.105427E-015,-1.421085E-014));
#238=DIRECTION('',(-1.0,0.0,0.0));
#239=DIRECTION('',(0.0,-1.0,0.0));
#240=DIRECTION('',(-1.0,-0.0,-0.0));
#241=CARTESIAN_POINT('',(4.00000000000001,7.105427E-015,-1.421085E-014));
#242=DIRECTION('',(-1.0,0.0,0.0));
#243=DIRECTION('',(0.0,-1.0,0.0));
#244=DIRECTION('',(-1.0,-0.0,-0.0));
#245=CARTESIAN_POINT('',(4.00000000000001,7.105427E-015,-1.421085E-014));
#246=DIRECTION('',(-1.0,0.0,0.0));
#247=DIRECTION('',(0.0,-1.0,0.0));
#248=DIRECTION('',(1.0,0.0,0.0));
#249=CARTESIAN_POINT('',(7.105427E-015,7.105427E-015,-1.421085E-014));
#250=DIRECTION('',(1.0,0.0,0.0));
#251=DIRECTION('',(0.0,-1.0,0.0));
#252=CARTESIAN_POINT('',(7.105427E-015,7.105427E-015,-1.421085E-014));
#253=DIRECTION('',(1.0,0.0,0.0));
#254=DIRECTION('',(0.0,-1.0,0.0));
#255=CARTESIAN_POINT('',(4.00000000000001,7.105427E-015,-1.421085E-014));
#256=DIRECTION('',(-1.0,0.0,0.0));
#257=DIRECTION('',(0.0,-1.0,0.0));
#258=CARTESIAN_POINT('',(4.00000000000001,7.105427E-015,-1.421085E-014));
#259=DIRECTION('',(-1.0,0.0,0.0));
#260=DIRECTION('',(0.0,-1.0,0.0));
#261=CARTESIAN_POINT('',(7.105427E-015,7.105427E-015,-1.421085E-014));
#262=DIRECTION('',(-1.0,0.0,0.0));
#263=DIRECTION('',(0.0,-1.0,0.0));
ENDSEC;
END-ISO-10303-21;
