ISO-10303-21;
HEADER;
FILE_DESCRIPTION(('STEP AP214'),'1');
FILE_NAME('cctmp_9D189563-A13B-40A4-8EFD-A689853D4DD6_2020_9_10_17_0_23_91..stp','2020-09-10T15:00:23',('Bosch Rexroth AG'),('CADClick - www.CADClick.com'),'Spatial InterOp 3D',' ','unknown authorization - (Healing Option Enabled)');
FILE_SCHEMA(('AUTOMOTIVE_DESIGN'));
ENDSEC;
DATA;
#1=MECHANICAL_DESIGN_GEOMETRIC_PRESENTATION_REPRESENTATION(' ',(#10,#11,#12,#13,#14,#15,#16,#17,#18,#19,#20,#21),#6);
#2=PRODUCT_DEFINITION_CONTEXT('',#22,'design');
#3=APPLICATION_PROTOCOL_DEFINITION('INTERNATIONAL STANDARD','automotive_design',1994,#22);
#4=PRODUCT_CATEGORY_RELATIONSHIP('NONE','NONE',#23,#24);
#5=SHAPE_DEFINITION_REPRESENTATION(#25,#26);
#6= (GEOMETRIC_REPRESENTATION_CONTEXT(3)GLOBAL_UNCERTAINTY_ASSIGNED_CONTEXT((#29))GLOBAL_UNIT_ASSIGNED_CONTEXT((#31,#32,#33))REPRESENTATION_CONTEXT('NONE','WORKSPACE'));
#10=STYLED_ITEM('',(#35),#36);
#11=STYLED_ITEM('',(#37),#38);
#12=STYLED_ITEM('',(#39),#40);
#13=STYLED_ITEM('',(#41),#42);
#14=STYLED_ITEM('',(#43),#44);
#15=STYLED_ITEM('',(#45),#46);
#16=STYLED_ITEM('',(#47),#48);
#17=STYLED_ITEM('',(#49),#50);
#18=STYLED_ITEM('',(#51),#52);
#19=STYLED_ITEM('',(#53),#54);
#20=STYLED_ITEM('',(#55),#56);
#21=STYLED_ITEM('',(#57),#58);
#22=APPLICATION_CONTEXT(' ');
#23=PRODUCT_CATEGORY('part','NONE');
#24=PRODUCT_RELATED_PRODUCT_CATEGORY('detail',' ',(#59));
#25=PRODUCT_DEFINITION_SHAPE('NONE','NONE',#60);
#26=ADVANCED_BREP_SHAPE_REPRESENTATION('2020_09_10__17-00-23-088',(#58,#61),#6);
#29=UNCERTAINTY_MEASURE_WITH_UNIT(LENGTH_MEASURE(1.0E-006),#31,'','');
#31= (CONVERSION_BASED_UNIT('MILLIMETRE',#64)LENGTH_UNIT()NAMED_UNIT(#67));
#32= (NAMED_UNIT(#69)PLANE_ANGLE_UNIT()SI_UNIT($,.RADIAN.));
#33= (NAMED_UNIT(#69)SOLID_ANGLE_UNIT()SI_UNIT($,.STERADIAN.));
#35=PRESENTATION_STYLE_ASSIGNMENT((#75));
#36=ADVANCED_FACE('',(#76),#77,.T.);
#37=PRESENTATION_STYLE_ASSIGNMENT((#78));
#38=ADVANCED_FACE('',(#79),#80,.T.);
#39=PRESENTATION_STYLE_ASSIGNMENT((#81));
#40=ADVANCED_FACE('',(#82),#83,.T.);
#41=PRESENTATION_STYLE_ASSIGNMENT((#84));
#42=ADVANCED_FACE('',(#85),#86,.T.);
#43=PRESENTATION_STYLE_ASSIGNMENT((#87));
#44=ADVANCED_FACE('',(#88),#89,.F.);
#45=PRESENTATION_STYLE_ASSIGNMENT((#90));
#46=ADVANCED_FACE('',(#91),#92,.T.);
#47=PRESENTATION_STYLE_ASSIGNMENT((#93));
#48=ADVANCED_FACE('',(#94),#95,.T.);
#49=PRESENTATION_STYLE_ASSIGNMENT((#96));
#50=ADVANCED_FACE('',(#97),#98,.T.);
#51=PRESENTATION_STYLE_ASSIGNMENT((#99));
#52=ADVANCED_FACE('',(#100),#101,.T.);
#53=PRESENTATION_STYLE_ASSIGNMENT((#102));
#54=ADVANCED_FACE('',(#103),#104,.T.);
#55=PRESENTATION_STYLE_ASSIGNMENT((#105));
#56=ADVANCED_FACE('',(#106),#107,.T.);
#57=PRESENTATION_STYLE_ASSIGNMENT((#108));
#58=MANIFOLD_SOLID_BREP('2020_09_10__17-00-23-088',#109);
#59=PRODUCT('2020_09_10__17-00-23-088','','PART--DESC',(#110));
#60=PRODUCT_DEFINITION('','NONE',#111,#2);
#61=AXIS2_PLACEMENT_3D('',#112,#113,#114);
#64=LENGTH_MEASURE_WITH_UNIT(LENGTH_MEASURE(1.0),#115);
#67=DIMENSIONAL_EXPONENTS(1.0,0.0,0.0,0.0,0.0,0.0,0.0);
#69=DIMENSIONAL_EXPONENTS(0.0,0.0,0.0,0.0,0.0,0.0,0.0);
#75=SURFACE_STYLE_USAGE(.BOTH.,#116);
#76=FACE_OUTER_BOUND('',#117,.T.);
#77=PLANE('',#118);
#78=SURFACE_STYLE_USAGE(.BOTH.,#119);
#79=FACE_OUTER_BOUND('',#120,.T.);
#80=PLANE('',#121);
#81=SURFACE_STYLE_USAGE(.BOTH.,#122);
#82=FACE_OUTER_BOUND('',#123,.T.);
#83=PLANE('',#124);
#84=SURFACE_STYLE_USAGE(.BOTH.,#125);
#85=FACE_OUTER_BOUND('',#126,.T.);
#86=PLANE('',#127);
#87=SURFACE_STYLE_USAGE(.BOTH.,#128);
#88=FACE_OUTER_BOUND('',#129,.T.);
#89=PLANE('',#130);
#90=SURFACE_STYLE_USAGE(.BOTH.,#131);
#91=FACE_OUTER_BOUND('',#132,.T.);
#92=PLANE('',#133);
#93=SURFACE_STYLE_USAGE(.BOTH.,#134);
#94=FACE_OUTER_BOUND('',#135,.T.);
#95=PLANE('',#136);
#96=SURFACE_STYLE_USAGE(.BOTH.,#137);
#97=FACE_OUTER_BOUND('',#138,.T.);
#98=PLANE('',#139);
#99=SURFACE_STYLE_USAGE(.BOTH.,#140);
#100=FACE_OUTER_BOUND('',#141,.T.);
#101=PLANE('',#142);
#102=SURFACE_STYLE_USAGE(.BOTH.,#143);
#103=FACE_OUTER_BOUND('',#144,.T.);
#104=PLANE('',#145);
#105=SURFACE_STYLE_USAGE(.BOTH.,#146);
#106=FACE_OUTER_BOUND('',#147,.T.);
#107=PLANE('',#148);
#108=SURFACE_STYLE_USAGE(.BOTH.,#149);
#109=CLOSED_SHELL('',(#36,#38,#40,#42,#44,#46,#48,#50,#52,#54,#56));
#110=PRODUCT_CONTEXT('',#22,'mechanical');
#111=PRODUCT_DEFINITION_FORMATION_WITH_SPECIFIED_SOURCE(' ','NONE',#59,.NOT_KNOWN.);
#112=CARTESIAN_POINT('',(0.0,0.0,0.0));
#113=DIRECTION('',(0.0,0.0,1.0));
#114=DIRECTION('',(1.0,0.0,0.0));
#115= (NAMED_UNIT(#67)LENGTH_UNIT()SI_UNIT(.MILLI.,.METRE.));
#116=SURFACE_SIDE_STYLE('',(#151));
#117=EDGE_LOOP('',(#152,#153,#154,#155));
#118=AXIS2_PLACEMENT_3D('',#156,#157,#158);
#119=SURFACE_SIDE_STYLE('',(#159));
#120=EDGE_LOOP('',(#160,#161,#162,#163,#164,#165));
#121=AXIS2_PLACEMENT_3D('',#166,#167,#168);
#122=SURFACE_SIDE_STYLE('',(#169));
#123=EDGE_LOOP('',(#170,#171,#172,#173));
#124=AXIS2_PLACEMENT_3D('',#174,#175,#176);
#125=SURFACE_SIDE_STYLE('',(#177));
#126=EDGE_LOOP('',(#178,#179,#180,#181));
#127=AXIS2_PLACEMENT_3D('',#182,#183,#184);
#128=SURFACE_SIDE_STYLE('',(#185));
#129=EDGE_LOOP('',(#186,#187,#188,#189,#190,#191));
#130=AXIS2_PLACEMENT_3D('',#192,#193,#194);
#131=SURFACE_SIDE_STYLE('',(#195));
#132=EDGE_LOOP('',(#196,#197,#198,#199,#200,#201,#202,#203));
#133=AXIS2_PLACEMENT_3D('',#204,#205,#206);
#134=SURFACE_SIDE_STYLE('',(#207));
#135=EDGE_LOOP('',(#208,#209,#210,#211));
#136=AXIS2_PLACEMENT_3D('',#212,#213,#214);
#137=SURFACE_SIDE_STYLE('',(#215));
#138=EDGE_LOOP('',(#216,#217,#218,#219,#220,#221,#222,#223));
#139=AXIS2_PLACEMENT_3D('',#224,#225,#226);
#140=SURFACE_SIDE_STYLE('',(#227));
#141=EDGE_LOOP('',(#228,#229,#230));
#142=AXIS2_PLACEMENT_3D('',#231,#232,#233);
#143=SURFACE_SIDE_STYLE('',(#234));
#144=EDGE_LOOP('',(#235,#236,#237,#238));
#145=AXIS2_PLACEMENT_3D('',#239,#240,#241);
#146=SURFACE_SIDE_STYLE('',(#242));
#147=EDGE_LOOP('',(#243,#244,#245));
#148=AXIS2_PLACEMENT_3D('',#246,#247,#248);
#149=SURFACE_SIDE_STYLE('',(#249));
#151=SURFACE_STYLE_FILL_AREA(#250);
#152=ORIENTED_EDGE('',*,*,#251,.F.);
#153=ORIENTED_EDGE('',*,*,#252,.T.);
#154=ORIENTED_EDGE('',*,*,#253,.T.);
#155=ORIENTED_EDGE('',*,*,#254,.T.);
#156=CARTESIAN_POINT('',(0.0,-4.99999999999977,180.0));
#157=DIRECTION('',(0.0,0.0,1.0));
#158=DIRECTION('',(1.0,-0.0,0.0));
#159=SURFACE_STYLE_FILL_AREA(#255);
#160=ORIENTED_EDGE('',*,*,#256,.T.);
#161=ORIENTED_EDGE('',*,*,#257,.F.);
#162=ORIENTED_EDGE('',*,*,#258,.T.);
#163=ORIENTED_EDGE('',*,*,#259,.T.);
#164=ORIENTED_EDGE('',*,*,#251,.T.);
#165=ORIENTED_EDGE('',*,*,#260,.T.);
#166=CARTESIAN_POINT('',(-40.0,-89.9999999999998,90.0));
#167=DIRECTION('',(-1.0,1.22464679914735E-016,0.0));
#168=DIRECTION('',(0.0,0.0,1.0));
#169=SURFACE_STYLE_FILL_AREA(#261);
#170=ORIENTED_EDGE('',*,*,#262,.T.);
#171=ORIENTED_EDGE('',*,*,#263,.T.);
#172=ORIENTED_EDGE('',*,*,#256,.F.);
#173=ORIENTED_EDGE('',*,*,#264,.F.);
#174=CARTESIAN_POINT('',(40.0,2.27373675443232E-013,0.0));
#175=DIRECTION('',(0.0,0.0,-1.0));
#176=DIRECTION('',(0.0,-1.0,0.0));
#177=SURFACE_STYLE_FILL_AREA(#265);
#178=ORIENTED_EDGE('',*,*,#266,.F.);
#179=ORIENTED_EDGE('',*,*,#267,.T.);
#180=ORIENTED_EDGE('',*,*,#257,.T.);
#181=ORIENTED_EDGE('',*,*,#263,.F.);
#182=CARTESIAN_POINT('',(0.0,-180.0,5.0));
#183=DIRECTION('',(0.0,-1.0,0.0));
#184=DIRECTION('',(0.0,0.0,-1.0));
#185=SURFACE_STYLE_FILL_AREA(#268);
#186=ORIENTED_EDGE('',*,*,#269,.F.);
#187=ORIENTED_EDGE('',*,*,#266,.T.);
#188=ORIENTED_EDGE('',*,*,#262,.F.);
#189=ORIENTED_EDGE('',*,*,#270,.F.);
#190=ORIENTED_EDGE('',*,*,#253,.F.);
#191=ORIENTED_EDGE('',*,*,#271,.F.);
#192=CARTESIAN_POINT('',(40.0,-89.9999999999998,90.0));
#193=DIRECTION('',(-1.0,1.22464679914735E-016,0.0));
#194=DIRECTION('',(0.0,0.0,1.0));
#195=SURFACE_STYLE_FILL_AREA(#272);
#196=ORIENTED_EDGE('',*,*,#273,.T.);
#197=ORIENTED_EDGE('',*,*,#274,.T.);
#198=ORIENTED_EDGE('',*,*,#275,.F.);
#199=ORIENTED_EDGE('',*,*,#276,.T.);
#200=ORIENTED_EDGE('',*,*,#258,.F.);
#201=ORIENTED_EDGE('',*,*,#267,.F.);
#202=ORIENTED_EDGE('',*,*,#269,.T.);
#203=ORIENTED_EDGE('',*,*,#277,.T.);
#204=CARTESIAN_POINT('',(40.0,-180.0,10.0));
#205=DIRECTION('',(0.0,0.0,1.0));
#206=DIRECTION('',(1.0,-0.0,0.0));
#207=SURFACE_STYLE_FILL_AREA(#278);
#208=ORIENTED_EDGE('',*,*,#260,.F.);
#209=ORIENTED_EDGE('',*,*,#254,.F.);
#210=ORIENTED_EDGE('',*,*,#270,.T.);
#211=ORIENTED_EDGE('',*,*,#264,.T.);
#212=CARTESIAN_POINT('',(40.0,2.27373675443232E-013,180.0));
#213=DIRECTION('',(1.83667601732676E-048,1.0,1.49975978266185E-032));
#214=DIRECTION('',(1.0,0.0,-1.22464679914735E-016));
#215=SURFACE_STYLE_FILL_AREA(#279);
#216=ORIENTED_EDGE('',*,*,#280,.F.);
#217=ORIENTED_EDGE('',*,*,#277,.F.);
#218=ORIENTED_EDGE('',*,*,#271,.T.);
#219=ORIENTED_EDGE('',*,*,#252,.F.);
#220=ORIENTED_EDGE('',*,*,#259,.F.);
#221=ORIENTED_EDGE('',*,*,#276,.F.);
#222=ORIENTED_EDGE('',*,*,#281,.T.);
#223=ORIENTED_EDGE('',*,*,#282,.F.);
#224=CARTESIAN_POINT('',(40.0,-9.99999999999977,10.0));
#225=DIRECTION('',(-1.22464679914735E-016,-1.0,0.0));
#226=DIRECTION('',(-1.0,1.22464679914735E-016,0.0));
#227=SURFACE_STYLE_FILL_AREA(#283);
#228=ORIENTED_EDGE('',*,*,#273,.F.);
#229=ORIENTED_EDGE('',*,*,#280,.T.);
#230=ORIENTED_EDGE('',*,*,#284,.T.);
#231=CARTESIAN_POINT('',(6.04372150933784,31.3957021659003,51.3957021659));
#232=DIRECTION('',(0.999847695156391,-0.01234071493983,0.0123407149398299));
#233=DIRECTION('',(0.0,-0.707106781186545,-0.70710678118655));
#234=SURFACE_STYLE_FILL_AREA(#285);
#235=ORIENTED_EDGE('',*,*,#274,.F.);
#236=ORIENTED_EDGE('',*,*,#284,.F.);
#237=ORIENTED_EDGE('',*,*,#282,.T.);
#238=ORIENTED_EDGE('',*,*,#286,.T.);
#239=CARTESIAN_POINT('',(3.99999999999989,-51.3957021658998,134.1871064977));
#240=DIRECTION('',(-8.65956056235493E-017,-0.707106781186548,0.707106781186548));
#241=DIRECTION('',(-1.0,1.22464679914735E-016,0.0));
#242=SURFACE_STYLE_FILL_AREA(#287);
#243=ORIENTED_EDGE('',*,*,#275,.T.);
#244=ORIENTED_EDGE('',*,*,#286,.F.);
#245=ORIENTED_EDGE('',*,*,#281,.F.);
#246=CARTESIAN_POINT('',(-4.00000000000011,-51.3957021658998,134.1871064977));
#247=DIRECTION('',(-0.999847695156391,-0.0123407149398298,0.0123407149398299));
#248=DIRECTION('',(-0.0123416547509396,0.999923838878746,-2.14077279164606E-020));
#249=SURFACE_STYLE_FILL_AREA(#288);
#250=FILL_AREA_STYLE('',(#289));
#251=EDGE_CURVE('',#290,#291,#292,.T.);
#252=EDGE_CURVE('',#290,#293,#294,.T.);
#253=EDGE_CURVE('',#293,#295,#296,.T.);
#254=EDGE_CURVE('',#295,#291,#297,.T.);
#255=FILL_AREA_STYLE('',(#298));
#256=EDGE_CURVE('',#299,#300,#301,.T.);
#257=EDGE_CURVE('',#302,#300,#303,.T.);
#258=EDGE_CURVE('',#302,#304,#305,.T.);
#259=EDGE_CURVE('',#304,#290,#306,.T.);
#260=EDGE_CURVE('',#291,#299,#307,.T.);
#261=FILL_AREA_STYLE('',(#308));
#262=EDGE_CURVE('',#309,#310,#311,.T.);
#263=EDGE_CURVE('',#310,#300,#312,.T.);
#264=EDGE_CURVE('',#309,#299,#313,.T.);
#265=FILL_AREA_STYLE('',(#314));
#266=EDGE_CURVE('',#315,#310,#316,.T.);
#267=EDGE_CURVE('',#315,#302,#317,.T.);
#268=FILL_AREA_STYLE('',(#318));
#269=EDGE_CURVE('',#315,#319,#320,.T.);
#270=EDGE_CURVE('',#295,#309,#321,.T.);
#271=EDGE_CURVE('',#319,#293,#322,.T.);
#272=FILL_AREA_STYLE('',(#323));
#273=EDGE_CURVE('',#324,#325,#326,.T.);
#274=EDGE_CURVE('',#325,#327,#328,.T.);
#275=EDGE_CURVE('',#329,#327,#330,.T.);
#276=EDGE_CURVE('',#329,#304,#331,.T.);
#277=EDGE_CURVE('',#319,#324,#332,.T.);
#278=FILL_AREA_STYLE('',(#333));
#279=FILL_AREA_STYLE('',(#334));
#280=EDGE_CURVE('',#324,#335,#336,.T.);
#281=EDGE_CURVE('',#329,#337,#338,.T.);
#282=EDGE_CURVE('',#335,#337,#339,.T.);
#283=FILL_AREA_STYLE('',(#340));
#284=EDGE_CURVE('',#335,#325,#341,.T.);
#285=FILL_AREA_STYLE('',(#342));
#286=EDGE_CURVE('',#337,#327,#343,.T.);
#287=FILL_AREA_STYLE('',(#344));
#288=FILL_AREA_STYLE('',(#345));
#289=FILL_AREA_STYLE_COLOUR('',#346);
#290=VERTEX_POINT('',#347);
#291=VERTEX_POINT('',#348);
#292=LINE('',#349,#350);
#293=VERTEX_POINT('',#351);
#294=LINE('',#352,#353);
#295=VERTEX_POINT('',#354);
#296=LINE('',#355,#356);
#297=LINE('',#357,#358);
#298=FILL_AREA_STYLE_COLOUR('',#359);
#299=VERTEX_POINT('',#360);
#300=VERTEX_POINT('',#361);
#301=LINE('',#362,#363);
#302=VERTEX_POINT('',#364);
#303=LINE('',#365,#366);
#304=VERTEX_POINT('',#367);
#305=LINE('',#368,#369);
#306=LINE('',#370,#371);
#307=LINE('',#372,#373);
#308=FILL_AREA_STYLE_COLOUR('',#374);
#309=VERTEX_POINT('',#375);
#310=VERTEX_POINT('',#376);
#311=LINE('',#377,#378);
#312=LINE('',#379,#380);
#313=LINE('',#381,#382);
#314=FILL_AREA_STYLE_COLOUR('',#383);
#315=VERTEX_POINT('',#384);
#316=LINE('',#385,#386);
#317=LINE('',#387,#388);
#318=FILL_AREA_STYLE_COLOUR('',#389);
#319=VERTEX_POINT('',#390);
#320=LINE('',#391,#392);
#321=LINE('',#393,#394);
#322=LINE('',#395,#396);
#323=FILL_AREA_STYLE_COLOUR('',#397);
#324=VERTEX_POINT('',#398);
#325=VERTEX_POINT('',#399);
#326=LINE('',#400,#401);
#327=VERTEX_POINT('',#402);
#328=LINE('',#403,#404);
#329=VERTEX_POINT('',#405);
#330=LINE('',#406,#407);
#331=LINE('',#408,#409);
#332=LINE('',#410,#411);
#333=FILL_AREA_STYLE_COLOUR('',#412);
#334=FILL_AREA_STYLE_COLOUR('',#413);
#335=VERTEX_POINT('',#414);
#336=LINE('',#415,#416);
#337=VERTEX_POINT('',#417);
#338=LINE('',#418,#419);
#339=LINE('',#420,#421);
#340=FILL_AREA_STYLE_COLOUR('',#422);
#341=LINE('',#423,#424);
#342=FILL_AREA_STYLE_COLOUR('',#425);
#343=LINE('',#426,#427);
#344=FILL_AREA_STYLE_COLOUR('',#428);
#345=FILL_AREA_STYLE_COLOUR('',#429);
#346=COLOUR_RGB('',0.749019622802734,0.749019622802734,0.749019622802734);
#347=CARTESIAN_POINT('',(-40.0,-9.99999999999977,180.0));
#348=CARTESIAN_POINT('',(-40.0,2.27373675443232E-013,180.0));
#349=CARTESIAN_POINT('',(-40.0,-4.99999999999977,180.0));
#350=VECTOR('',#430,10.0);
#351=CARTESIAN_POINT('',(40.0,-9.99999999999977,180.0));
#352=CARTESIAN_POINT('',(0.0,-9.99999999999977,180.0));
#353=VECTOR('',#431,80.0);
#354=CARTESIAN_POINT('',(40.0,2.27373675443232E-013,180.0));
#355=CARTESIAN_POINT('',(40.0,-4.99999999999977,180.0));
#356=VECTOR('',#432,10.0);
#357=CARTESIAN_POINT('',(40.0,2.27373675443232E-013,180.0));
#358=VECTOR('',#433,80.0);
#359=COLOUR_RGB('',0.749019622802734,0.749019622802734,0.749019622802734);
#360=CARTESIAN_POINT('',(-40.0,2.27373675443232E-013,0.0));
#361=CARTESIAN_POINT('',(-40.0,-180.0,0.0));
#362=CARTESIAN_POINT('',(-40.0,2.27373675443232E-013,0.0));
#363=VECTOR('',#434,180.0);
#364=CARTESIAN_POINT('',(-40.0,-180.0,10.0));
#365=CARTESIAN_POINT('',(-40.0,-180.0,5.0));
#366=VECTOR('',#435,10.0);
#367=CARTESIAN_POINT('',(-40.0,-9.99999999999977,10.0));
#368=CARTESIAN_POINT('',(-40.0,-179.82544935072,10.0));
#369=VECTOR('',#436,170.0);
#370=CARTESIAN_POINT('',(-40.0,-9.99999999999977,10.0));
#371=VECTOR('',#437,170.0);
#372=CARTESIAN_POINT('',(-40.0,2.27373675443232E-013,180.0));
#373=VECTOR('',#438,180.0);
#374=COLOUR_RGB('',0.749019622802734,0.749019622802734,0.749019622802734);
#375=CARTESIAN_POINT('',(40.0,2.27373675443232E-013,0.0));
#376=CARTESIAN_POINT('',(40.0,-180.0,0.0));
#377=CARTESIAN_POINT('',(40.0,2.27373675443232E-013,0.0));
#378=VECTOR('',#439,180.0);
#379=CARTESIAN_POINT('',(40.0,-180.0,0.0));
#380=VECTOR('',#440,80.0);
#381=CARTESIAN_POINT('',(40.0,2.27373675443232E-013,0.0));
#382=VECTOR('',#441,80.0);
#383=COLOUR_RGB('',0.749019622802734,0.749019622802734,0.749019622802734);
#384=CARTESIAN_POINT('',(40.0,-180.0,10.0));
#385=CARTESIAN_POINT('',(40.0,-180.0,5.0));
#386=VECTOR('',#442,10.0);
#387=CARTESIAN_POINT('',(0.0,-180.0,10.0));
#388=VECTOR('',#443,80.0);
#389=COLOUR_RGB('',0.749019622802734,0.749019622802734,0.749019622802734);
#390=CARTESIAN_POINT('',(40.0,-9.99999999999977,10.0));
#391=CARTESIAN_POINT('',(40.0,-179.82544935072,10.0));
#392=VECTOR('',#444,170.0);
#393=CARTESIAN_POINT('',(40.0,2.27373675443232E-013,180.0));
#394=VECTOR('',#445,180.0);
#395=CARTESIAN_POINT('',(40.0,-9.99999999999977,10.0));
#396=VECTOR('',#446,170.0);
#397=COLOUR_RGB('',0.749019622802734,0.749019622802734,0.749019622802734);
#398=CARTESIAN_POINT('',(6.04372150933784,-9.99999999999977,10.0));
#399=CARTESIAN_POINT('',(3.99999999999989,-175.5828086636,10.0));
#400=CARTESIAN_POINT('',(6.04372150933784,-9.99999999999977,10.0));
#401=VECTOR('',#447,165.595420596507);
#402=CARTESIAN_POINT('',(-4.00000000000011,-175.5828086636,10.0));
#403=CARTESIAN_POINT('',(3.99999999999989,-175.5828086636,10.0));
#404=VECTOR('',#448,8.0);
#405=CARTESIAN_POINT('',(-6.04372150933807,-9.99999999999977,10.0));
#406=CARTESIAN_POINT('',(-6.04372150933807,-9.99999999999977,10.0));
#407=VECTOR('',#449,165.595420596507);
#408=CARTESIAN_POINT('',(-6.04372150933807,-9.99999999999977,10.0));
#409=VECTOR('',#450,33.9562784906619);
#410=CARTESIAN_POINT('',(40.0,-9.99999999999977,10.0));
#411=VECTOR('',#451,33.9562784906622);
#412=COLOUR_RGB('',0.749019622802734,0.749019622802734,0.749019622802734);
#413=COLOUR_RGB('',0.749019622802734,0.749019622802734,0.749019622802734);
#414=CARTESIAN_POINT('',(3.99999999999989,-9.99999999999977,175.5828086636));
#415=CARTESIAN_POINT('',(6.04372150933784,-9.99999999999977,10.0));
#416=VECTOR('',#452,165.595420596507);
#417=CARTESIAN_POINT('',(-4.00000000000011,-9.99999999999977,175.5828086636));
#418=CARTESIAN_POINT('',(-6.04372150933807,-9.99999999999977,10.0));
#419=VECTOR('',#453,165.595420596507);
#420=CARTESIAN_POINT('',(3.99999999999989,-9.99999999999977,175.5828086636));
#421=VECTOR('',#454,8.0);
#422=COLOUR_RGB('',0.749019622802734,0.749019622802734,0.749019622802734);
#423=CARTESIAN_POINT('',(3.99999999999989,-9.99999999999977,175.5828086636));
#424=VECTOR('',#455,234.169453707892);
#425=COLOUR_RGB('',0.749019622802734,0.749019622802734,0.749019622802734);
#426=CARTESIAN_POINT('',(-4.00000000000011,-9.99999999999977,175.5828086636));
#427=VECTOR('',#456,234.169453707892);
#428=COLOUR_RGB('',0.749019622802734,0.749019622802734,0.749019622802734);
#429=COLOUR_RGB('',0.749019622802734,0.749019622802734,0.749019622802734);
#430=DIRECTION('',(0.0,1.0,0.0));
#431=DIRECTION('',(1.0,0.0,0.0));
#432=DIRECTION('',(0.0,1.0,0.0));
#433=DIRECTION('',(-1.0,1.22464679914735E-016,0.0));
#434=DIRECTION('',(-1.22464679914735E-016,-1.0,0.0));
#435=DIRECTION('',(0.0,0.0,-1.0));
#436=DIRECTION('',(1.22464679914735E-016,1.0,0.0));
#437=DIRECTION('',(0.0,0.0,1.0));
#438=DIRECTION('',(0.0,0.0,-1.0));
#439=DIRECTION('',(-1.22464679914735E-016,-1.0,0.0));
#440=DIRECTION('',(-1.0,1.22464679914735E-016,0.0));
#441=DIRECTION('',(-1.0,1.22464679914735E-016,0.0));
#442=DIRECTION('',(0.0,0.0,-1.0));
#443=DIRECTION('',(-1.0,0.0,0.0));
#444=DIRECTION('',(1.22464679914735E-016,1.0,0.0));
#445=DIRECTION('',(0.0,0.0,-1.0));
#446=DIRECTION('',(0.0,0.0,1.0));
#447=DIRECTION('',(-0.0123416547509407,-0.999923838878746,0.0));
#448=DIRECTION('',(-1.0,1.22464679914735E-016,0.0));
#449=DIRECTION('',(0.0123416547509404,-0.999923838878746,0.0));
#450=DIRECTION('',(-1.0,1.22464679914735E-016,0.0));
#451=DIRECTION('',(-1.0,1.22464679914735E-016,0.0));
#452=DIRECTION('',(-0.0123416547509406,1.51141679869211E-018,0.999923838878746));
#453=DIRECTION('',(0.0123416547509406,-1.51141679869211E-018,0.999923838878746));
#454=DIRECTION('',(-1.0,1.22464679914735E-016,0.0));
#455=DIRECTION('',(-8.65956056235494E-017,-0.707106781186548,-0.707106781186548));
#456=DIRECTION('',(-8.65956056235494E-017,-0.707106781186548,-0.707106781186548));
ENDSEC;
END-ISO-10303-21;
