ISO-10303-21;
HEADER;
FILE_DESCRIPTION(('STEP AP214'),'1');
FILE_NAME('cctmp_7FA63212-8462-49AB-98E6-AC7507CD3DFF_2020_1_20_10_3_0_233..stp','2020-01-20T09:03:00',('Bosch Rexroth AG'),('CADClick - www.CADClick.com'),'Spatial InterOp 3D',' ','unknown authorization - (Healing Option Enabled)');
FILE_SCHEMA(('AUTOMOTIVE_DESIGN'));
ENDSEC;
DATA;
#1=MECHANICAL_DESIGN_GEOMETRIC_PRESENTATION_REPRESENTATION(' ',(#10,#11,#12,#13,#14,#15,#16,#17,#18,#19,#20,#21,#22),#6);
#2=PRODUCT_DEFINITION_CONTEXT('',#23,'design');
#3=APPLICATION_PROTOCOL_DEFINITION('INTERNATIONAL STANDARD','automotive_design',1994,#23);
#4=PRODUCT_CATEGORY_RELATIONSHIP('NONE','NONE',#24,#25);
#5=SHAPE_DEFINITION_REPRESENTATION(#26,#27);
#6= (GEOMETRIC_REPRESENTATION_CONTEXT(3)GLOBAL_UNCERTAINTY_ASSIGNED_CONTEXT((#30))GLOBAL_UNIT_ASSIGNED_CONTEXT((#32,#33,#34))REPRESENTATION_CONTEXT('NONE','WORKSPACE'));
#10=STYLED_ITEM('',(#36),#37);
#11=STYLED_ITEM('',(#38),#39);
#12=STYLED_ITEM('',(#40),#41);
#13=STYLED_ITEM('',(#42),#43);
#14=STYLED_ITEM('',(#44),#45);
#15=STYLED_ITEM('',(#46),#47);
#16=STYLED_ITEM('',(#48),#49);
#17=STYLED_ITEM('',(#50),#51);
#18=STYLED_ITEM('',(#52),#53);
#19=STYLED_ITEM('',(#54),#55);
#20=STYLED_ITEM('',(#56),#57);
#21=STYLED_ITEM('',(#58),#59);
#22=STYLED_ITEM('',(#60),#61);
#23=APPLICATION_CONTEXT(' ');
#24=PRODUCT_CATEGORY('part','NONE');
#25=PRODUCT_RELATED_PRODUCT_CATEGORY('detail',' ',(#62));
#26=PRODUCT_DEFINITION_SHAPE('NONE','NONE',#63);
#27=ADVANCED_BREP_SHAPE_REPRESENTATION('2020_01_20__10-03-00-233',(#61,#64),#6);
#30=UNCERTAINTY_MEASURE_WITH_UNIT(LENGTH_MEASURE(1.0E-006),#32,'','');
#32= (CONVERSION_BASED_UNIT('MILLIMETRE',#67)LENGTH_UNIT()NAMED_UNIT(#70));
#33= (NAMED_UNIT(#72)PLANE_ANGLE_UNIT()SI_UNIT($,.RADIAN.));
#34= (NAMED_UNIT(#72)SOLID_ANGLE_UNIT()SI_UNIT($,.STERADIAN.));
#36=PRESENTATION_STYLE_ASSIGNMENT((#78));
#37=ADVANCED_FACE('',(#79),#80,.T.);
#38=PRESENTATION_STYLE_ASSIGNMENT((#81));
#39=ADVANCED_FACE('',(#82),#83,.T.);
#40=PRESENTATION_STYLE_ASSIGNMENT((#84));
#41=ADVANCED_FACE('',(#85),#86,.T.);
#42=PRESENTATION_STYLE_ASSIGNMENT((#87));
#43=ADVANCED_FACE('',(#88),#89,.F.);
#44=PRESENTATION_STYLE_ASSIGNMENT((#90));
#45=ADVANCED_FACE('',(#91),#92,.T.);
#46=PRESENTATION_STYLE_ASSIGNMENT((#93));
#47=ADVANCED_FACE('',(#94),#95,.F.);
#48=PRESENTATION_STYLE_ASSIGNMENT((#96));
#49=ADVANCED_FACE('',(#97),#98,.T.);
#50=PRESENTATION_STYLE_ASSIGNMENT((#99));
#51=ADVANCED_FACE('',(#100),#101,.T.);
#52=PRESENTATION_STYLE_ASSIGNMENT((#102));
#53=ADVANCED_FACE('',(#103),#104,.T.);
#54=PRESENTATION_STYLE_ASSIGNMENT((#105));
#55=ADVANCED_FACE('',(#106),#107,.T.);
#56=PRESENTATION_STYLE_ASSIGNMENT((#108));
#57=ADVANCED_FACE('',(#109,#110,#111),#112,.T.);
#58=PRESENTATION_STYLE_ASSIGNMENT((#113));
#59=ADVANCED_FACE('',(#114),#115,.F.);
#60=PRESENTATION_STYLE_ASSIGNMENT((#116));
#61=MANIFOLD_SOLID_BREP('2020_01_20__10-03-00-233',#117);
#62=PRODUCT('2020_01_20__10-03-00-233','','PART--DESC',(#118));
#63=PRODUCT_DEFINITION('','NONE',#119,#2);
#64=AXIS2_PLACEMENT_3D('',#120,#121,#122);
#67=LENGTH_MEASURE_WITH_UNIT(LENGTH_MEASURE(1.0),#123);
#70=DIMENSIONAL_EXPONENTS(1.0,0.0,0.0,0.0,0.0,0.0,0.0);
#72=DIMENSIONAL_EXPONENTS(0.0,0.0,0.0,0.0,0.0,0.0,0.0);
#78=SURFACE_STYLE_USAGE(.BOTH.,#124);
#79=FACE_OUTER_BOUND('',#125,.T.);
#80=CYLINDRICAL_SURFACE('',#126,7.0);
#81=SURFACE_STYLE_USAGE(.BOTH.,#127);
#82=FACE_OUTER_BOUND('',#128,.T.);
#83=CYLINDRICAL_SURFACE('',#129,7.0);
#84=SURFACE_STYLE_USAGE(.BOTH.,#130);
#85=FACE_OUTER_BOUND('',#131,.T.);
#86=CYLINDRICAL_SURFACE('',#132,7.0);
#87=SURFACE_STYLE_USAGE(.BOTH.,#133);
#88=FACE_OUTER_BOUND('',#134,.T.);
#89=PLANE('',#135);
#90=SURFACE_STYLE_USAGE(.BOTH.,#136);
#91=FACE_OUTER_BOUND('',#137,.T.);
#92=CYLINDRICAL_SURFACE('',#138,7.0);
#93=SURFACE_STYLE_USAGE(.BOTH.,#139);
#94=FACE_OUTER_BOUND('',#140,.T.);
#95=PLANE('',#141);
#96=SURFACE_STYLE_USAGE(.BOTH.,#142);
#97=FACE_OUTER_BOUND('',#143,.T.);
#98=PLANE('',#144);
#99=SURFACE_STYLE_USAGE(.BOTH.,#145);
#100=FACE_OUTER_BOUND('',#146,.T.);
#101=PLANE('',#147);
#102=SURFACE_STYLE_USAGE(.BOTH.,#148);
#103=FACE_OUTER_BOUND('',#149,.T.);
#104=PLANE('',#150);
#105=SURFACE_STYLE_USAGE(.BOTH.,#151);
#106=FACE_OUTER_BOUND('',#152,.T.);
#107=PLANE('',#153);
#108=SURFACE_STYLE_USAGE(.BOTH.,#154);
#109=FACE_BOUND('',#155,.T.);
#110=FACE_BOUND('',#156,.T.);
#111=FACE_OUTER_BOUND('',#157,.T.);
#112=PLANE('',#158);
#113=SURFACE_STYLE_USAGE(.BOTH.,#159);
#114=FACE_OUTER_BOUND('',#160,.T.);
#115=PLANE('',#161);
#116=SURFACE_STYLE_USAGE(.BOTH.,#162);
#117=CLOSED_SHELL('',(#37,#39,#41,#43,#45,#47,#49,#51,#53,#55,#57,#59));
#118=PRODUCT_CONTEXT('',#23,'mechanical');
#119=PRODUCT_DEFINITION_FORMATION_WITH_SPECIFIED_SOURCE(' ','NONE',#62,.NOT_KNOWN.);
#120=CARTESIAN_POINT('',(0.0,0.0,0.0));
#121=DIRECTION('',(0.0,0.0,1.0));
#122=DIRECTION('',(1.0,0.0,0.0));
#123= (NAMED_UNIT(#70)LENGTH_UNIT()SI_UNIT(.MILLI.,.METRE.));
#124=SURFACE_SIDE_STYLE('',(#164));
#125=EDGE_LOOP('',(#165,#166,#167,#168));
#126=AXIS2_PLACEMENT_3D('',#169,#170,#171);
#127=SURFACE_SIDE_STYLE('',(#172));
#128=EDGE_LOOP('',(#173,#174,#175,#176));
#129=AXIS2_PLACEMENT_3D('',#177,#178,#179);
#130=SURFACE_SIDE_STYLE('',(#180));
#131=EDGE_LOOP('',(#181,#182,#183,#184));
#132=AXIS2_PLACEMENT_3D('',#185,#186,#187);
#133=SURFACE_SIDE_STYLE('',(#188));
#134=EDGE_LOOP('',(#189,#190));
#135=AXIS2_PLACEMENT_3D('',#191,#192,#193);
#136=SURFACE_SIDE_STYLE('',(#194));
#137=EDGE_LOOP('',(#195,#196,#197,#198));
#138=AXIS2_PLACEMENT_3D('',#199,#200,#201);
#139=SURFACE_SIDE_STYLE('',(#202));
#140=EDGE_LOOP('',(#203,#204));
#141=AXIS2_PLACEMENT_3D('',#205,#206,#207);
#142=SURFACE_SIDE_STYLE('',(#208));
#143=EDGE_LOOP('',(#209,#210,#211,#212));
#144=AXIS2_PLACEMENT_3D('',#213,#214,#215);
#145=SURFACE_SIDE_STYLE('',(#216));
#146=EDGE_LOOP('',(#217,#218,#219,#220));
#147=AXIS2_PLACEMENT_3D('',#221,#222,#223);
#148=SURFACE_SIDE_STYLE('',(#224));
#149=EDGE_LOOP('',(#225,#226,#227,#228));
#150=AXIS2_PLACEMENT_3D('',#229,#230,#231);
#151=SURFACE_SIDE_STYLE('',(#232));
#152=EDGE_LOOP('',(#233,#234,#235,#236));
#153=AXIS2_PLACEMENT_3D('',#237,#238,#239);
#154=SURFACE_SIDE_STYLE('',(#240));
#155=EDGE_LOOP('',(#241,#242));
#156=EDGE_LOOP('',(#243,#244));
#157=EDGE_LOOP('',(#245,#246,#247,#248));
#158=AXIS2_PLACEMENT_3D('',#249,#250,#251);
#159=SURFACE_SIDE_STYLE('',(#252));
#160=EDGE_LOOP('',(#253,#254,#255,#256));
#161=AXIS2_PLACEMENT_3D('',#257,#258,#259);
#162=SURFACE_SIDE_STYLE('',(#260));
#164=SURFACE_STYLE_FILL_AREA(#261);
#165=ORIENTED_EDGE('',*,*,#262,.F.);
#166=ORIENTED_EDGE('',*,*,#263,.F.);
#167=ORIENTED_EDGE('',*,*,#264,.F.);
#168=ORIENTED_EDGE('',*,*,#265,.T.);
#169=CARTESIAN_POINT('',(22.4999999999997,-15.2,3.5527136788005E-015));
#170=DIRECTION('',(0.0,-1.0,3.06161699786838E-016));
#171=DIRECTION('',(1.0,0.0,0.0));
#172=SURFACE_STYLE_FILL_AREA(#266);
#173=ORIENTED_EDGE('',*,*,#267,.F.);
#174=ORIENTED_EDGE('',*,*,#268,.F.);
#175=ORIENTED_EDGE('',*,*,#269,.F.);
#176=ORIENTED_EDGE('',*,*,#270,.T.);
#177=CARTESIAN_POINT('',(44.9999999999997,-15.2,3.5527136788005E-015));
#178=DIRECTION('',(0.0,-1.0,3.06161699786838E-016));
#179=DIRECTION('',(1.0,0.0,0.0));
#180=SURFACE_STYLE_FILL_AREA(#271);
#181=ORIENTED_EDGE('',*,*,#267,.T.);
#182=ORIENTED_EDGE('',*,*,#272,.T.);
#183=ORIENTED_EDGE('',*,*,#269,.T.);
#184=ORIENTED_EDGE('',*,*,#273,.F.);
#185=CARTESIAN_POINT('',(44.9999999999997,-15.2,3.5527136788005E-015));
#186=DIRECTION('',(0.0,-1.0,3.06161699786838E-016));
#187=DIRECTION('',(1.0,0.0,0.0));
#188=SURFACE_STYLE_FILL_AREA(#274);
#189=ORIENTED_EDGE('',*,*,#272,.F.);
#190=ORIENTED_EDGE('',*,*,#270,.F.);
#191=CARTESIAN_POINT('',(44.9999999999997,-2.49999999999994,3.5527136788005E-015));
#192=DIRECTION('',(0.0,-1.0,3.06161699786838E-016));
#193=DIRECTION('',(-1.0,0.0,0.0));
#194=SURFACE_STYLE_FILL_AREA(#275);
#195=ORIENTED_EDGE('',*,*,#262,.T.);
#196=ORIENTED_EDGE('',*,*,#276,.T.);
#197=ORIENTED_EDGE('',*,*,#264,.T.);
#198=ORIENTED_EDGE('',*,*,#277,.F.);
#199=CARTESIAN_POINT('',(22.4999999999997,-15.2,3.5527136788005E-015));
#200=DIRECTION('',(0.0,-1.0,3.06161699786838E-016));
#201=DIRECTION('',(1.0,0.0,0.0));
#202=SURFACE_STYLE_FILL_AREA(#278);
#203=ORIENTED_EDGE('',*,*,#276,.F.);
#204=ORIENTED_EDGE('',*,*,#265,.F.);
#205=CARTESIAN_POINT('',(22.4999999999997,-2.49999999999994,3.5527136788005E-015));
#206=DIRECTION('',(0.0,-1.0,3.06161699786838E-016));
#207=DIRECTION('',(-1.0,0.0,0.0));
#208=SURFACE_STYLE_FILL_AREA(#279);
#209=ORIENTED_EDGE('',*,*,#280,.T.);
#210=ORIENTED_EDGE('',*,*,#281,.F.);
#211=ORIENTED_EDGE('',*,*,#282,.F.);
#212=ORIENTED_EDGE('',*,*,#283,.T.);
#213=CARTESIAN_POINT('',(59.9999999999997,-20.2,-10.0));
#214=DIRECTION('',(1.0,0.0,0.0));
#215=DIRECTION('',(0.0,1.0,-0.0));
#216=SURFACE_STYLE_FILL_AREA(#284);
#217=ORIENTED_EDGE('',*,*,#285,.T.);
#218=ORIENTED_EDGE('',*,*,#286,.F.);
#219=ORIENTED_EDGE('',*,*,#287,.F.);
#220=ORIENTED_EDGE('',*,*,#281,.T.);
#221=CARTESIAN_POINT('',(59.9999999999997,-20.2,10.0));
#222=DIRECTION('',(0.0,3.06161699786838E-016,1.0));
#223=DIRECTION('',(1.0,-0.0,0.0));
#224=SURFACE_STYLE_FILL_AREA(#288);
#225=ORIENTED_EDGE('',*,*,#289,.T.);
#226=ORIENTED_EDGE('',*,*,#290,.F.);
#227=ORIENTED_EDGE('',*,*,#291,.F.);
#228=ORIENTED_EDGE('',*,*,#286,.T.);
#229=CARTESIAN_POINT('',(-60.0000000000003,-20.2,10.0));
#230=DIRECTION('',(-1.0,0.0,0.0));
#231=DIRECTION('',(0.0,0.0,1.0));
#232=SURFACE_STYLE_FILL_AREA(#292);
#233=ORIENTED_EDGE('',*,*,#293,.T.);
#234=ORIENTED_EDGE('',*,*,#283,.F.);
#235=ORIENTED_EDGE('',*,*,#294,.F.);
#236=ORIENTED_EDGE('',*,*,#290,.T.);
#237=CARTESIAN_POINT('',(-60.0000000000003,-20.2,-10.0));
#238=DIRECTION('',(0.0,-3.06161699786838E-016,-1.0));
#239=DIRECTION('',(0.0,-1.0,3.06161699786838E-016));
#240=SURFACE_STYLE_FILL_AREA(#295);
#241=ORIENTED_EDGE('',*,*,#273,.T.);
#242=ORIENTED_EDGE('',*,*,#268,.T.);
#243=ORIENTED_EDGE('',*,*,#277,.T.);
#244=ORIENTED_EDGE('',*,*,#263,.T.);
#245=ORIENTED_EDGE('',*,*,#280,.F.);
#246=ORIENTED_EDGE('',*,*,#293,.F.);
#247=ORIENTED_EDGE('',*,*,#289,.F.);
#248=ORIENTED_EDGE('',*,*,#285,.F.);
#249=CARTESIAN_POINT('',(-2.8421709430404E-013,-15.2,3.5527136788005E-015));
#250=DIRECTION('',(-8.4273503802071E-063,1.0,-3.06161699786862E-016));
#251=DIRECTION('',(1.0,0.0,-2.75258152344787E-047));
#252=SURFACE_STYLE_FILL_AREA(#296);
#253=ORIENTED_EDGE('',*,*,#294,.T.);
#254=ORIENTED_EDGE('',*,*,#282,.T.);
#255=ORIENTED_EDGE('',*,*,#287,.T.);
#256=ORIENTED_EDGE('',*,*,#291,.T.);
#257=CARTESIAN_POINT('',(-2.8421709430404E-013,-20.2,3.5527136788005E-015));
#258=DIRECTION('',(8.4273503802071E-063,1.0,-3.06161699786862E-016));
#259=DIRECTION('',(1.0,0.0,2.75258152344787E-047));
#260=SURFACE_STYLE_FILL_AREA(#297);
#261=FILL_AREA_STYLE('',(#298));
#262=EDGE_CURVE('',#299,#300,#301,.T.);
#263=EDGE_CURVE('',#302,#299,#303,.T.);
#264=EDGE_CURVE('',#304,#302,#305,.T.);
#265=EDGE_CURVE('',#304,#300,#306,.T.);
#266=FILL_AREA_STYLE('',(#307));
#267=EDGE_CURVE('',#308,#309,#310,.T.);
#268=EDGE_CURVE('',#311,#308,#312,.T.);
#269=EDGE_CURVE('',#313,#311,#314,.T.);
#270=EDGE_CURVE('',#313,#309,#315,.T.);
#271=FILL_AREA_STYLE('',(#316));
#272=EDGE_CURVE('',#309,#313,#317,.T.);
#273=EDGE_CURVE('',#308,#311,#318,.T.);
#274=FILL_AREA_STYLE('',(#319));
#275=FILL_AREA_STYLE('',(#320));
#276=EDGE_CURVE('',#300,#304,#321,.T.);
#277=EDGE_CURVE('',#299,#302,#322,.T.);
#278=FILL_AREA_STYLE('',(#323));
#279=FILL_AREA_STYLE('',(#324));
#280=EDGE_CURVE('',#325,#326,#327,.T.);
#281=EDGE_CURVE('',#328,#326,#329,.T.);
#282=EDGE_CURVE('',#330,#328,#331,.T.);
#283=EDGE_CURVE('',#330,#325,#332,.T.);
#284=FILL_AREA_STYLE('',(#333));
#285=EDGE_CURVE('',#326,#334,#335,.T.);
#286=EDGE_CURVE('',#336,#334,#337,.T.);
#287=EDGE_CURVE('',#328,#336,#338,.T.);
#288=FILL_AREA_STYLE('',(#339));
#289=EDGE_CURVE('',#334,#340,#341,.T.);
#290=EDGE_CURVE('',#342,#340,#343,.T.);
#291=EDGE_CURVE('',#336,#342,#344,.T.);
#292=FILL_AREA_STYLE('',(#345));
#293=EDGE_CURVE('',#340,#325,#346,.T.);
#294=EDGE_CURVE('',#342,#330,#347,.T.);
#295=FILL_AREA_STYLE('',(#348));
#296=FILL_AREA_STYLE('',(#349));
#297=FILL_AREA_STYLE('',(#350));
#298=FILL_AREA_STYLE_COLOUR('',#351);
#299=VERTEX_POINT('',#352);
#300=VERTEX_POINT('',#353);
#301=LINE('',#354,#355);
#302=VERTEX_POINT('',#356);
#303=CIRCLE('',#357,7.0);
#304=VERTEX_POINT('',#358);
#305=LINE('',#359,#360);
#306=CIRCLE('',#361,7.0);
#307=FILL_AREA_STYLE_COLOUR('',#362);
#308=VERTEX_POINT('',#363);
#309=VERTEX_POINT('',#364);
#310=LINE('',#365,#366);
#311=VERTEX_POINT('',#367);
#312=CIRCLE('',#368,7.0);
#313=VERTEX_POINT('',#369);
#314=LINE('',#370,#371);
#315=CIRCLE('',#372,7.0);
#316=FILL_AREA_STYLE_COLOUR('',#373);
#317=CIRCLE('',#374,7.0);
#318=CIRCLE('',#375,7.0);
#319=FILL_AREA_STYLE_COLOUR('',#376);
#320=FILL_AREA_STYLE_COLOUR('',#377);
#321=CIRCLE('',#378,7.0);
#322=CIRCLE('',#379,7.0);
#323=FILL_AREA_STYLE_COLOUR('',#380);
#324=FILL_AREA_STYLE_COLOUR('',#381);
#325=VERTEX_POINT('',#382);
#326=VERTEX_POINT('',#383);
#327=LINE('',#384,#385);
#328=VERTEX_POINT('',#386);
#329=LINE('',#387,#388);
#330=VERTEX_POINT('',#389);
#331=LINE('',#390,#391);
#332=LINE('',#392,#393);
#333=FILL_AREA_STYLE_COLOUR('',#394);
#334=VERTEX_POINT('',#395);
#335=LINE('',#396,#397);
#336=VERTEX_POINT('',#398);
#337=LINE('',#399,#400);
#338=LINE('',#401,#402);
#339=FILL_AREA_STYLE_COLOUR('',#403);
#340=VERTEX_POINT('',#404);
#341=LINE('',#405,#406);
#342=VERTEX_POINT('',#407);
#343=LINE('',#408,#409);
#344=LINE('',#410,#411);
#345=FILL_AREA_STYLE_COLOUR('',#412);
#346=LINE('',#413,#414);
#347=LINE('',#415,#416);
#348=FILL_AREA_STYLE_COLOUR('',#417);
#349=FILL_AREA_STYLE_COLOUR('',#418);
#350=FILL_AREA_STYLE_COLOUR('',#419);
#351=COLOUR_RGB('',0.749019622802734,0.749019622802734,0.749019622802734);
#352=CARTESIAN_POINT('',(29.4999999999997,-15.2,3.5527136788005E-015));
#353=CARTESIAN_POINT('',(29.4999999999997,-2.49999999999994,3.5527136788005E-015));
#354=CARTESIAN_POINT('',(29.4999999999997,-15.2,2.69546091939735E-015));
#355=VECTOR('',#420,1.0);
#356=CARTESIAN_POINT('',(15.4999999999997,-15.2,4.40996643820365E-015));
#357=AXIS2_PLACEMENT_3D('',#421,#422,#423);
#358=CARTESIAN_POINT('',(15.4999999999997,-2.49999999999994,5.21712850910785E-016));
#359=CARTESIAN_POINT('',(15.4999999999997,-15.2,4.40996643820365E-015));
#360=VECTOR('',#424,1.0);
#361=AXIS2_PLACEMENT_3D('',#425,#426,#427);
#362=COLOUR_RGB('',0.749019622802734,0.749019622802734,0.749019622802734);
#363=CARTESIAN_POINT('',(51.9999999999997,-15.2,3.5527136788005E-015));
#364=CARTESIAN_POINT('',(51.9999999999997,-2.49999999999994,3.5527136788005E-015));
#365=CARTESIAN_POINT('',(51.9999999999997,-15.2,2.69546091939735E-015));
#366=VECTOR('',#428,1.0);
#367=CARTESIAN_POINT('',(37.9999999999997,-15.2,4.40996643820365E-015));
#368=AXIS2_PLACEMENT_3D('',#429,#430,#431);
#369=CARTESIAN_POINT('',(37.9999999999997,-2.49999999999994,5.21712850910785E-016));
#370=CARTESIAN_POINT('',(37.9999999999997,-15.2,4.40996643820365E-015));
#371=VECTOR('',#432,1.0);
#372=AXIS2_PLACEMENT_3D('',#433,#434,#435);
#373=COLOUR_RGB('',0.749019622802734,0.749019622802734,0.749019622802734);
#374=AXIS2_PLACEMENT_3D('',#436,#437,#438);
#375=AXIS2_PLACEMENT_3D('',#439,#440,#441);
#376=COLOUR_RGB('',0.749019622802734,0.749019622802734,0.749019622802734);
#377=COLOUR_RGB('',0.749019622802734,0.749019622802734,0.749019622802734);
#378=AXIS2_PLACEMENT_3D('',#442,#443,#444);
#379=AXIS2_PLACEMENT_3D('',#445,#446,#447);
#380=COLOUR_RGB('',0.749019622802734,0.749019622802734,0.749019622802734);
#381=COLOUR_RGB('',0.749019622802734,0.749019622802734,0.749019622802734);
#382=CARTESIAN_POINT('',(59.9999999999997,-15.2,-10.0));
#383=CARTESIAN_POINT('',(59.9999999999997,-15.2,10.0));
#384=CARTESIAN_POINT('',(59.9999999999997,-15.2,-10.0));
#385=VECTOR('',#448,20.0);
#386=CARTESIAN_POINT('',(59.9999999999997,-20.2,10.0));
#387=CARTESIAN_POINT('',(59.9999999999997,-20.2,10.0));
#388=VECTOR('',#449,5.0);
#389=CARTESIAN_POINT('',(59.9999999999997,-20.2,-10.0));
#390=CARTESIAN_POINT('',(59.9999999999997,-20.2,-10.0));
#391=VECTOR('',#450,20.0);
#392=CARTESIAN_POINT('',(59.9999999999997,-20.2,-10.0));
#393=VECTOR('',#451,5.0);
#394=COLOUR_RGB('',0.749019622802734,0.749019622802734,0.749019622802734);
#395=CARTESIAN_POINT('',(-60.0000000000003,-15.2,10.0));
#396=CARTESIAN_POINT('',(59.9999999999997,-15.2,10.0));
#397=VECTOR('',#452,120.0);
#398=CARTESIAN_POINT('',(-60.0000000000003,-20.2,10.0));
#399=CARTESIAN_POINT('',(-60.0000000000003,-20.2,10.0));
#400=VECTOR('',#453,5.0);
#401=CARTESIAN_POINT('',(59.9999999999997,-20.2,10.0));
#402=VECTOR('',#454,120.0);
#403=COLOUR_RGB('',0.749019622802734,0.749019622802734,0.749019622802734);
#404=CARTESIAN_POINT('',(-60.0000000000003,-15.2,-10.0));
#405=CARTESIAN_POINT('',(-60.0000000000003,-15.2,10.0));
#406=VECTOR('',#455,20.0);
#407=CARTESIAN_POINT('',(-60.0000000000003,-20.2,-10.0));
#408=CARTESIAN_POINT('',(-60.0000000000003,-20.2,-10.0));
#409=VECTOR('',#456,5.0);
#410=CARTESIAN_POINT('',(-60.0000000000003,-20.2,10.0));
#411=VECTOR('',#457,20.0);
#412=COLOUR_RGB('',0.749019622802734,0.749019622802734,0.749019622802734);
#413=CARTESIAN_POINT('',(-60.0000000000003,-15.2,-10.0));
#414=VECTOR('',#458,120.0);
#415=CARTESIAN_POINT('',(-60.0000000000003,-20.2,-10.0));
#416=VECTOR('',#459,120.0);
#417=COLOUR_RGB('',0.749019622802734,0.749019622802734,0.749019622802734);
#418=COLOUR_RGB('',0.749019622802734,0.749019622802734,0.749019622802734);
#419=COLOUR_RGB('',0.749019622802734,0.749019622802734,0.749019622802734);
#420=DIRECTION('',(-0.0,1.0,-3.06161699786838E-016));
#421=CARTESIAN_POINT('',(22.4999999999997,-15.2,3.5527136788005E-015));
#422=DIRECTION('',(8.4273503802071E-063,-1.0,3.06161699786862E-016));
#423=DIRECTION('',(1.0,8.4273503802071E-063,-2.58013191710366E-078));
#424=DIRECTION('',(0.0,-1.0,3.06161699786838E-016));
#425=CARTESIAN_POINT('',(22.4999999999997,-2.49999999999994,3.5527136788005E-015));
#426=DIRECTION('',(0.0,-1.0,3.06161699786838E-016));
#427=DIRECTION('',(1.0,0.0,0.0));
#428=DIRECTION('',(-0.0,1.0,-3.06161699786838E-016));
#429=CARTESIAN_POINT('',(44.9999999999997,-15.2,3.5527136788005E-015));
#430=DIRECTION('',(8.4273503802071E-063,-1.0,3.06161699786862E-016));
#431=DIRECTION('',(1.0,8.4273503802071E-063,-2.58013191710366E-078));
#432=DIRECTION('',(0.0,-1.0,3.06161699786838E-016));
#433=CARTESIAN_POINT('',(44.9999999999997,-2.49999999999994,3.5527136788005E-015));
#434=DIRECTION('',(0.0,-1.0,3.06161699786838E-016));
#435=DIRECTION('',(1.0,0.0,0.0));
#436=CARTESIAN_POINT('',(44.9999999999997,-2.49999999999994,3.5527136788005E-015));
#437=DIRECTION('',(0.0,-1.0,3.06161699786838E-016));
#438=DIRECTION('',(1.0,0.0,0.0));
#439=CARTESIAN_POINT('',(44.9999999999997,-15.2,3.5527136788005E-015));
#440=DIRECTION('',(8.4273503802071E-063,-1.0,3.06161699786862E-016));
#441=DIRECTION('',(1.0,8.4273503802071E-063,-2.58013191710366E-078));
#442=CARTESIAN_POINT('',(22.4999999999997,-2.49999999999994,3.5527136788005E-015));
#443=DIRECTION('',(0.0,-1.0,3.06161699786838E-016));
#444=DIRECTION('',(1.0,0.0,0.0));
#445=CARTESIAN_POINT('',(22.4999999999997,-15.2,3.5527136788005E-015));
#446=DIRECTION('',(8.4273503802071E-063,-1.0,3.06161699786862E-016));
#447=DIRECTION('',(1.0,8.4273503802071E-063,-2.58013191710366E-078));
#448=DIRECTION('',(0.0,3.06161699786838E-016,1.0));
#449=DIRECTION('',(0.0,1.0,-3.06161699786838E-016));
#450=DIRECTION('',(0.0,3.06161699786838E-016,1.0));
#451=DIRECTION('',(0.0,1.0,-3.06161699786838E-016));
#452=DIRECTION('',(-1.0,0.0,0.0));
#453=DIRECTION('',(0.0,1.0,-3.06161699786838E-016));
#454=DIRECTION('',(-1.0,0.0,0.0));
#455=DIRECTION('',(0.0,-3.06161699786838E-016,-1.0));
#456=DIRECTION('',(0.0,1.0,-3.06161699786838E-016));
#457=DIRECTION('',(0.0,-3.06161699786838E-016,-1.0));
#458=DIRECTION('',(1.0,0.0,0.0));
#459=DIRECTION('',(1.0,0.0,0.0));
ENDSEC;
END-ISO-10303-21;
