ISO-10303-21;
HEADER;
FILE_DESCRIPTION(('STEP AP214'),'1');
FILE_NAME('cctmp_3DB5BB87-D6A7-42E3-A79A-9AEA26B5C3AC_2020_1_20_9_33_16_797..stp','2020-01-20T08:33:16',('Bosch Rexroth AG'),('CADClick - www.CADClick.com'),'Spatial InterOp 3D',' ','unknown authorization - (Healing Option Enabled)');
FILE_SCHEMA(('AUTOMOTIVE_DESIGN'));
ENDSEC;
DATA;
#1=MECHANICAL_DESIGN_GEOMETRIC_PRESENTATION_REPRESENTATION(' ',(#10,#11,#12,#13,#14,#15,#16,#17,#18),#6);
#2=PRODUCT_DEFINITION_CONTEXT('',#19,'design');
#3=APPLICATION_PROTOCOL_DEFINITION('INTERNATIONAL STANDARD','automotive_design',1994,#19);
#4=PRODUCT_CATEGORY_RELATIONSHIP('NONE','NONE',#20,#21);
#5=SHAPE_DEFINITION_REPRESENTATION(#22,#23);
#6= (GEOMETRIC_REPRESENTATION_CONTEXT(3)GLOBAL_UNCERTAINTY_ASSIGNED_CONTEXT((#26))GLOBAL_UNIT_ASSIGNED_CONTEXT((#28,#29,#30))REPRESENTATION_CONTEXT('NONE','WORKSPACE'));
#10=STYLED_ITEM('',(#32),#33);
#11=STYLED_ITEM('',(#34),#35);
#12=STYLED_ITEM('',(#36),#37);
#13=STYLED_ITEM('',(#38),#39);
#14=STYLED_ITEM('',(#40),#41);
#15=STYLED_ITEM('',(#42),#43);
#16=STYLED_ITEM('',(#44),#45);
#17=STYLED_ITEM('',(#46),#47);
#18=STYLED_ITEM('',(#48),#49);
#19=APPLICATION_CONTEXT(' ');
#20=PRODUCT_CATEGORY('part','NONE');
#21=PRODUCT_RELATED_PRODUCT_CATEGORY('detail',' ',(#50));
#22=PRODUCT_DEFINITION_SHAPE('NONE','NONE',#51);
#23=ADVANCED_BREP_SHAPE_REPRESENTATION('2020_01_20__09-33-16-797',(#49,#52),#6);
#26=UNCERTAINTY_MEASURE_WITH_UNIT(LENGTH_MEASURE(1.0E-006),#28,'','');
#28= (CONVERSION_BASED_UNIT('MILLIMETRE',#55)LENGTH_UNIT()NAMED_UNIT(#58));
#29= (NAMED_UNIT(#60)PLANE_ANGLE_UNIT()SI_UNIT($,.RADIAN.));
#30= (NAMED_UNIT(#60)SOLID_ANGLE_UNIT()SI_UNIT($,.STERADIAN.));
#32=PRESENTATION_STYLE_ASSIGNMENT((#66));
#33=ADVANCED_FACE('',(#67),#68,.F.);
#34=PRESENTATION_STYLE_ASSIGNMENT((#69));
#35=ADVANCED_FACE('',(#70),#71,.T.);
#36=PRESENTATION_STYLE_ASSIGNMENT((#72));
#37=ADVANCED_FACE('',(#73),#74,.T.);
#38=PRESENTATION_STYLE_ASSIGNMENT((#75));
#39=ADVANCED_FACE('',(#76),#77,.T.);
#40=PRESENTATION_STYLE_ASSIGNMENT((#78));
#41=ADVANCED_FACE('',(#79),#80,.T.);
#42=PRESENTATION_STYLE_ASSIGNMENT((#81));
#43=ADVANCED_FACE('',(#82),#83,.F.);
#44=PRESENTATION_STYLE_ASSIGNMENT((#84));
#45=ADVANCED_FACE('',(#85),#86,.F.);
#46=PRESENTATION_STYLE_ASSIGNMENT((#87));
#47=ADVANCED_FACE('',(#88),#89,.T.);
#48=PRESENTATION_STYLE_ASSIGNMENT((#90));
#49=MANIFOLD_SOLID_BREP('2020_01_20__09-33-16-797',#91);
#50=PRODUCT('2020_01_20__09-33-16-797','','PART--DESC',(#92));
#51=PRODUCT_DEFINITION('','NONE',#93,#2);
#52=AXIS2_PLACEMENT_3D('',#94,#95,#96);
#55=LENGTH_MEASURE_WITH_UNIT(LENGTH_MEASURE(1.0),#97);
#58=DIMENSIONAL_EXPONENTS(1.0,0.0,0.0,0.0,0.0,0.0,0.0);
#60=DIMENSIONAL_EXPONENTS(0.0,0.0,0.0,0.0,0.0,0.0,0.0);
#66=SURFACE_STYLE_USAGE(.BOTH.,#98);
#67=FACE_OUTER_BOUND('',#99,.T.);
#68=CYLINDRICAL_SURFACE('',#100,30.0000000587473);
#69=SURFACE_STYLE_USAGE(.BOTH.,#101);
#70=FACE_OUTER_BOUND('',#102,.T.);
#71=CYLINDRICAL_SURFACE('',#103,59.999999958916);
#72=SURFACE_STYLE_USAGE(.BOTH.,#104);
#73=FACE_OUTER_BOUND('',#105,.T.);
#74=PLANE('',#106);
#75=SURFACE_STYLE_USAGE(.BOTH.,#107);
#76=FACE_OUTER_BOUND('',#108,.T.);
#77=CYLINDRICAL_SURFACE('',#109,59.999999958916);
#78=SURFACE_STYLE_USAGE(.BOTH.,#110);
#79=FACE_OUTER_BOUND('',#111,.T.);
#80=PLANE('',#112);
#81=SURFACE_STYLE_USAGE(.BOTH.,#113);
#82=FACE_OUTER_BOUND('',#114,.T.);
#83=CYLINDRICAL_SURFACE('',#115,30.0000000587473);
#84=SURFACE_STYLE_USAGE(.BOTH.,#116);
#85=FACE_OUTER_BOUND('',#117,.T.);
#86=PLANE('',#118);
#87=SURFACE_STYLE_USAGE(.BOTH.,#119);
#88=FACE_OUTER_BOUND('',#120,.T.);
#89=PLANE('',#121);
#90=SURFACE_STYLE_USAGE(.BOTH.,#122);
#91=CLOSED_SHELL('',(#33,#35,#37,#39,#41,#43,#45,#47));
#92=PRODUCT_CONTEXT('',#19,'mechanical');
#93=PRODUCT_DEFINITION_FORMATION_WITH_SPECIFIED_SOURCE(' ','NONE',#50,.NOT_KNOWN.);
#94=CARTESIAN_POINT('',(0.0,0.0,0.0));
#95=DIRECTION('',(0.0,0.0,1.0));
#96=DIRECTION('',(1.0,0.0,0.0));
#97= (NAMED_UNIT(#58)LENGTH_UNIT()SI_UNIT(.MILLI.,.METRE.));
#98=SURFACE_SIDE_STYLE('',(#124));
#99=EDGE_LOOP('',(#125,#126,#127,#128));
#100=AXIS2_PLACEMENT_3D('',#129,#130,#131);
#101=SURFACE_SIDE_STYLE('',(#132));
#102=EDGE_LOOP('',(#133,#134,#135,#136));
#103=AXIS2_PLACEMENT_3D('',#137,#138,#139);
#104=SURFACE_SIDE_STYLE('',(#140));
#105=EDGE_LOOP('',(#141,#142,#143,#144));
#106=AXIS2_PLACEMENT_3D('',#145,#146,#147);
#107=SURFACE_SIDE_STYLE('',(#148));
#108=EDGE_LOOP('',(#149,#150,#151,#152));
#109=AXIS2_PLACEMENT_3D('',#153,#154,#155);
#110=SURFACE_SIDE_STYLE('',(#156));
#111=EDGE_LOOP('',(#157,#158,#159,#160));
#112=AXIS2_PLACEMENT_3D('',#161,#162,#163);
#113=SURFACE_SIDE_STYLE('',(#164));
#114=EDGE_LOOP('',(#165,#166,#167,#168));
#115=AXIS2_PLACEMENT_3D('',#169,#170,#171);
#116=SURFACE_SIDE_STYLE('',(#172));
#117=EDGE_LOOP('',(#173,#174,#175,#176,#177,#178));
#118=AXIS2_PLACEMENT_3D('',#179,#180,#181);
#119=SURFACE_SIDE_STYLE('',(#182));
#120=EDGE_LOOP('',(#183,#184,#185,#186,#187,#188));
#121=AXIS2_PLACEMENT_3D('',#189,#190,#191);
#122=SURFACE_SIDE_STYLE('',(#192));
#124=SURFACE_STYLE_FILL_AREA(#193);
#125=ORIENTED_EDGE('',*,*,#194,.F.);
#126=ORIENTED_EDGE('',*,*,#195,.T.);
#127=ORIENTED_EDGE('',*,*,#196,.F.);
#128=ORIENTED_EDGE('',*,*,#197,.F.);
#129=CARTESIAN_POINT('',(2.99999999999999,-41.5745790187473,-17.2207544855268));
#130=DIRECTION('',(1.0,-0.0,0.0));
#131=DIRECTION('',(0.0,0.923879532453199,0.382683432505325));
#132=SURFACE_STYLE_FILL_AREA(#198);
#133=ORIENTED_EDGE('',*,*,#199,.F.);
#134=ORIENTED_EDGE('',*,*,#200,.F.);
#135=ORIENTED_EDGE('',*,*,#201,.T.);
#136=ORIENTED_EDGE('',*,*,#202,.T.);
#137=CARTESIAN_POINT('',(2.99999999999999,-41.574578918916,-17.2207544453681));
#138=DIRECTION('',(1.0,-0.0,0.0));
#139=DIRECTION('',(0.0,0.923879532537249,0.382683432302412));
#140=SURFACE_STYLE_FILL_AREA(#203);
#141=ORIENTED_EDGE('',*,*,#204,.T.);
#142=ORIENTED_EDGE('',*,*,#201,.F.);
#143=ORIENTED_EDGE('',*,*,#205,.F.);
#144=ORIENTED_EDGE('',*,*,#196,.T.);
#145=CARTESIAN_POINT('',(2.99999999999999,-11.57457896,-17.22075446));
#146=DIRECTION('',(0.0,3.5527136788005E-016,-1.0));
#147=DIRECTION('',(-1.0,0.0,0.0));
#148=SURFACE_STYLE_FILL_AREA(#206);
#149=ORIENTED_EDGE('',*,*,#199,.T.);
#150=ORIENTED_EDGE('',*,*,#207,.T.);
#151=ORIENTED_EDGE('',*,*,#208,.F.);
#152=ORIENTED_EDGE('',*,*,#209,.F.);
#153=CARTESIAN_POINT('',(2.99999999999999,-41.574578918916,-17.2207544453681));
#154=DIRECTION('',(1.0,-0.0,0.0));
#155=DIRECTION('',(0.0,0.923879532537249,0.382683432302412));
#156=SURFACE_STYLE_FILL_AREA(#210);
#157=ORIENTED_EDGE('',*,*,#211,.T.);
#158=ORIENTED_EDGE('',*,*,#212,.F.);
#159=ORIENTED_EDGE('',*,*,#213,.F.);
#160=ORIENTED_EDGE('',*,*,#208,.T.);
#161=CARTESIAN_POINT('',(2.99999999999999,0.85182791863636,25.2056524013637));
#162=DIRECTION('',(0.0,-0.707106780732003,0.707106781641093));
#163=DIRECTION('',(-1.0,0.0,0.0));
#164=SURFACE_STYLE_FILL_AREA(#214);
#165=ORIENTED_EDGE('',*,*,#194,.T.);
#166=ORIENTED_EDGE('',*,*,#215,.F.);
#167=ORIENTED_EDGE('',*,*,#212,.T.);
#168=ORIENTED_EDGE('',*,*,#216,.T.);
#169=CARTESIAN_POINT('',(2.99999999999999,-41.5745790187473,-17.2207544855268));
#170=DIRECTION('',(1.0,-0.0,0.0));
#171=DIRECTION('',(0.0,0.923879532453199,0.382683432505325));
#172=SURFACE_STYLE_FILL_AREA(#217);
#173=ORIENTED_EDGE('',*,*,#204,.F.);
#174=ORIENTED_EDGE('',*,*,#195,.F.);
#175=ORIENTED_EDGE('',*,*,#216,.F.);
#176=ORIENTED_EDGE('',*,*,#211,.F.);
#177=ORIENTED_EDGE('',*,*,#207,.F.);
#178=ORIENTED_EDGE('',*,*,#202,.F.);
#179=CARTESIAN_POINT('',(0.0,0.282005286756032,0.116810407033542));
#180=DIRECTION('',(1.0,0.0,0.0));
#181=DIRECTION('',(0.0,1.0,-0.0));
#182=SURFACE_STYLE_FILL_AREA(#218);
#183=ORIENTED_EDGE('',*,*,#215,.T.);
#184=ORIENTED_EDGE('',*,*,#197,.T.);
#185=ORIENTED_EDGE('',*,*,#205,.T.);
#186=ORIENTED_EDGE('',*,*,#200,.T.);
#187=ORIENTED_EDGE('',*,*,#209,.T.);
#188=ORIENTED_EDGE('',*,*,#213,.T.);
#189=CARTESIAN_POINT('',(2.99999999999997,0.282005286756061,0.116810407033543));
#190=DIRECTION('',(1.0,0.0,0.0));
#191=DIRECTION('',(0.0,1.0,-0.0));
#192=SURFACE_STYLE_FILL_AREA(#219);
#193=FILL_AREA_STYLE('',(#220));
#194=EDGE_CURVE('',#221,#222,#223,.T.);
#195=EDGE_CURVE('',#221,#224,#225,.T.);
#196=EDGE_CURVE('',#226,#224,#227,.T.);
#197=EDGE_CURVE('',#222,#226,#228,.T.);
#198=FILL_AREA_STYLE('',(#229));
#199=EDGE_CURVE('',#230,#231,#232,.T.);
#200=EDGE_CURVE('',#233,#230,#234,.T.);
#201=EDGE_CURVE('',#233,#235,#236,.T.);
#202=EDGE_CURVE('',#235,#231,#237,.T.);
#203=FILL_AREA_STYLE('',(#238));
#204=EDGE_CURVE('',#224,#235,#239,.T.);
#205=EDGE_CURVE('',#226,#233,#240,.T.);
#206=FILL_AREA_STYLE('',(#241));
#207=EDGE_CURVE('',#231,#242,#243,.T.);
#208=EDGE_CURVE('',#244,#242,#245,.T.);
#209=EDGE_CURVE('',#230,#244,#246,.T.);
#210=FILL_AREA_STYLE('',(#247));
#211=EDGE_CURVE('',#242,#248,#249,.T.);
#212=EDGE_CURVE('',#250,#248,#251,.T.);
#213=EDGE_CURVE('',#244,#250,#252,.T.);
#214=FILL_AREA_STYLE('',(#253));
#215=EDGE_CURVE('',#250,#222,#254,.T.);
#216=EDGE_CURVE('',#248,#221,#255,.T.);
#217=FILL_AREA_STYLE('',(#256));
#218=FILL_AREA_STYLE('',(#257));
#219=FILL_AREA_STYLE('',(#258));
#220=FILL_AREA_STYLE_COLOUR('',#259);
#221=VERTEX_POINT('',#260);
#222=VERTEX_POINT('',#261);
#223=LINE('',#262,#263);
#224=VERTEX_POINT('',#264);
#225=CIRCLE('',#265,30.0000000587473);
#226=VERTEX_POINT('',#266);
#227=LINE('',#267,#268);
#228=CIRCLE('',#269,30.0000000587473);
#229=FILL_AREA_STYLE_COLOUR('',#270);
#230=VERTEX_POINT('',#271);
#231=VERTEX_POINT('',#272);
#232=LINE('',#273,#274);
#233=VERTEX_POINT('',#275);
#234=CIRCLE('',#276,59.999999958916);
#235=VERTEX_POINT('',#277);
#236=LINE('',#278,#279);
#237=CIRCLE('',#280,59.999999958916);
#238=FILL_AREA_STYLE_COLOUR('',#281);
#239=LINE('',#282,#283);
#240=LINE('',#284,#285);
#241=FILL_AREA_STYLE_COLOUR('',#286);
#242=VERTEX_POINT('',#287);
#243=CIRCLE('',#288,59.999999958916);
#244=VERTEX_POINT('',#289);
#245=LINE('',#290,#291);
#246=CIRCLE('',#292,59.999999958916);
#247=FILL_AREA_STYLE_COLOUR('',#293);
#248=VERTEX_POINT('',#294);
#249=LINE('',#295,#296);
#250=VERTEX_POINT('',#297);
#251=LINE('',#298,#299);
#252=LINE('',#300,#301);
#253=FILL_AREA_STYLE_COLOUR('',#302);
#254=CIRCLE('',#303,30.0000000587473);
#255=CIRCLE('',#304,30.0000000587473);
#256=FILL_AREA_STYLE_COLOUR('',#305);
#257=FILL_AREA_STYLE_COLOUR('',#306);
#258=FILL_AREA_STYLE_COLOUR('',#307);
#259=COLOUR_RGB('',0.61176472902298,0.61176472902298,0.650980412960052);
#260=CARTESIAN_POINT('',(-1.4210854715202E-014,-13.8581929908759,-5.74025148788543));
#261=CARTESIAN_POINT('',(2.99999999999999,-13.8581929908759,-5.74025148788543));
#262=CARTESIAN_POINT('',(1.49999999999999,-13.8581929908759,-5.74025148788543));
#263=VECTOR('',#308,1.0);
#264=CARTESIAN_POINT('',(0.0,-11.57457896,-17.22075446));
#265=AXIS2_PLACEMENT_3D('',#309,#310,#311);
#266=CARTESIAN_POINT('',(2.99999999999999,-11.57457896,-17.22075446));
#267=CARTESIAN_POINT('',(2.99999999999999,-11.57457896,-17.22075446));
#268=VECTOR('',#312,2.99999999999999);
#269=AXIS2_PLACEMENT_3D('',#313,#314,#315);
#270=COLOUR_RGB('',0.61176472902298,0.61176472902298,0.650980412960052);
#271=CARTESIAN_POINT('',(2.99999999999999,13.8581929953622,5.74025147705444));
#272=CARTESIAN_POINT('',(-1.4210854715202E-014,13.8581929953622,5.74025147705444));
#273=CARTESIAN_POINT('',(1.49999999999999,13.8581929953622,5.74025147705444));
#274=VECTOR('',#316,1.0);
#275=CARTESIAN_POINT('',(2.99999999999999,18.42542104,-17.22075446));
#276=AXIS2_PLACEMENT_3D('',#317,#318,#319);
#277=CARTESIAN_POINT('',(0.0,18.42542104,-17.22075446));
#278=CARTESIAN_POINT('',(2.99999999999999,18.42542104,-17.22075446));
#279=VECTOR('',#320,2.99999999999999);
#280=AXIS2_PLACEMENT_3D('',#321,#322,#323);
#281=COLOUR_RGB('',0.61176472902298,0.61176472902298,0.650980412960052);
#282=CARTESIAN_POINT('',(-1.4210854715202E-014,-11.57457896,-17.22075446));
#283=VECTOR('',#324,30.0);
#284=CARTESIAN_POINT('',(2.99999999999999,-11.57457896,-17.22075446));
#285=VECTOR('',#325,30.0);
#286=COLOUR_RGB('',0.61176472902298,0.61176472902298,0.650980412960052);
#287=CARTESIAN_POINT('',(0.0,0.85182791863636,25.2056524013637));
#288=AXIS2_PLACEMENT_3D('',#326,#327,#328);
#289=CARTESIAN_POINT('',(2.99999999999999,0.85182791863636,25.2056524013637));
#290=CARTESIAN_POINT('',(2.99999999999999,0.85182791863636,25.2056524013637));
#291=VECTOR('',#329,2.99999999999999);
#292=AXIS2_PLACEMENT_3D('',#330,#331,#332);
#293=COLOUR_RGB('',0.61176472902298,0.61176472902298,0.650980412960052);
#294=CARTESIAN_POINT('',(0.0,-20.36137553,3.99244898));
#295=CARTESIAN_POINT('',(-1.4210854715202E-014,0.85182791863636,25.2056524013637));
#296=VECTOR('',#333,29.9999999991565);
#297=CARTESIAN_POINT('',(2.99999999999999,-20.36137553,3.99244898));
#298=CARTESIAN_POINT('',(2.99999999999999,-20.36137553,3.99244898));
#299=VECTOR('',#334,2.99999999999999);
#300=CARTESIAN_POINT('',(2.99999999999999,0.85182791863636,25.2056524013637));
#301=VECTOR('',#335,29.9999999991565);
#302=COLOUR_RGB('',0.61176472902298,0.61176472902298,0.650980412960052);
#303=AXIS2_PLACEMENT_3D('',#336,#337,#338);
#304=AXIS2_PLACEMENT_3D('',#339,#340,#341);
#305=COLOUR_RGB('',0.61176472902298,0.61176472902298,0.650980412960052);
#306=COLOUR_RGB('',0.61176472902298,0.61176472902298,0.650980412960052);
#307=COLOUR_RGB('',0.61176472902298,0.61176472902298,0.650980412960052);
#308=DIRECTION('',(1.0,-0.0,-0.0));
#309=CARTESIAN_POINT('',(-1.4210854715202E-014,-41.5745790187473,-17.2207544855268));
#310=DIRECTION('',(-1.0,0.0,0.0));
#311=DIRECTION('',(0.0,0.923879532453199,0.382683432505325));
#312=DIRECTION('',(-1.0,0.0,0.0));
#313=CARTESIAN_POINT('',(2.99999999999999,-41.5745790187473,-17.2207544855268));
#314=DIRECTION('',(-1.0,0.0,0.0));
#315=DIRECTION('',(0.0,0.923879532453199,0.382683432505325));
#316=DIRECTION('',(-1.0,0.0,-0.0));
#317=CARTESIAN_POINT('',(2.99999999999999,-41.574578918916,-17.2207544453681));
#318=DIRECTION('',(1.0,0.0,-0.0));
#319=DIRECTION('',(0.0,0.923879532537249,0.382683432302412));
#320=DIRECTION('',(-1.0,0.0,0.0));
#321=CARTESIAN_POINT('',(-1.4210854715202E-014,-41.574578918916,-17.2207544453681));
#322=DIRECTION('',(1.0,0.0,-0.0));
#323=DIRECTION('',(0.0,0.923879532537249,0.382683432302412));
#324=DIRECTION('',(0.0,1.0,3.5527136788005E-016));
#325=DIRECTION('',(0.0,1.0,3.5527136788005E-016));
#326=CARTESIAN_POINT('',(-1.4210854715202E-014,-41.574578918916,-17.2207544453681));
#327=DIRECTION('',(1.0,0.0,-0.0));
#328=DIRECTION('',(0.0,0.923879532537249,0.382683432302412));
#329=DIRECTION('',(-1.0,0.0,0.0));
#330=CARTESIAN_POINT('',(2.99999999999999,-41.574578918916,-17.2207544453681));
#331=DIRECTION('',(1.0,0.0,-0.0));
#332=DIRECTION('',(0.0,0.923879532537249,0.382683432302412));
#333=DIRECTION('',(0.0,-0.707106781641093,-0.707106780732003));
#334=DIRECTION('',(-1.0,0.0,0.0));
#335=DIRECTION('',(0.0,-0.707106781641093,-0.707106780732003));
#336=CARTESIAN_POINT('',(2.99999999999999,-41.5745790187473,-17.2207544855268));
#337=DIRECTION('',(-1.0,0.0,0.0));
#338=DIRECTION('',(0.0,0.923879532453199,0.382683432505325));
#339=CARTESIAN_POINT('',(-1.4210854715202E-014,-41.5745790187473,-17.2207544855268));
#340=DIRECTION('',(-1.0,0.0,0.0));
#341=DIRECTION('',(0.0,0.923879532453199,0.382683432505325));
ENDSEC;
END-ISO-10303-21;
