ISO-10303-21;
HEADER;
FILE_DESCRIPTION(('STEP AP214'),'1');
FILE_NAME('cctmp_D1A8D942-154B-46F9-96B4-C4D8CE341FAB_2020_1_20_8_50_45_301..stp','2020-01-20T07:50:45',('Bosch Rexroth AG'),('CADClick - www.CADClick.com'),'Spatial InterOp 3D',' ','unknown authorization - (Healing Option Enabled)');
FILE_SCHEMA(('AUTOMOTIVE_DESIGN'));
ENDSEC;
DATA;
#1=MECHANICAL_DESIGN_GEOMETRIC_PRESENTATION_REPRESENTATION(' ',(#10,#11,#12,#13,#14,#15,#16,#17,#18,#19,#20,#21,#22,#23),#6);
#2=PRODUCT_DEFINITION_CONTEXT('',#24,'design');
#3=APPLICATION_PROTOCOL_DEFINITION('INTERNATIONAL STANDARD','automotive_design',1994,#24);
#4=PRODUCT_CATEGORY_RELATIONSHIP('NONE','NONE',#25,#26);
#5=SHAPE_DEFINITION_REPRESENTATION(#27,#28);
#6= (GEOMETRIC_REPRESENTATION_CONTEXT(3)GLOBAL_UNCERTAINTY_ASSIGNED_CONTEXT((#31))GLOBAL_UNIT_ASSIGNED_CONTEXT((#33,#34,#35))REPRESENTATION_CONTEXT('NONE','WORKSPACE'));
#10=STYLED_ITEM('',(#37),#38);
#11=STYLED_ITEM('',(#39),#40);
#12=STYLED_ITEM('',(#41),#42);
#13=STYLED_ITEM('',(#43),#44);
#14=STYLED_ITEM('',(#45),#46);
#15=STYLED_ITEM('',(#47),#48);
#16=STYLED_ITEM('',(#49),#50);
#17=STYLED_ITEM('',(#51),#52);
#18=STYLED_ITEM('',(#53),#54);
#19=STYLED_ITEM('',(#55),#56);
#20=STYLED_ITEM('',(#57),#58);
#21=STYLED_ITEM('',(#59),#60);
#22=STYLED_ITEM('',(#61),#62);
#23=STYLED_ITEM('',(#63),#64);
#24=APPLICATION_CONTEXT(' ');
#25=PRODUCT_CATEGORY('part','NONE');
#26=PRODUCT_RELATED_PRODUCT_CATEGORY('detail',' ',(#65));
#27=PRODUCT_DEFINITION_SHAPE('NONE','NONE',#66);
#28=ADVANCED_BREP_SHAPE_REPRESENTATION('2020_01_20__08-50-45-301',(#64,#67),#6);
#31=UNCERTAINTY_MEASURE_WITH_UNIT(LENGTH_MEASURE(1.0E-006),#33,'','');
#33= (CONVERSION_BASED_UNIT('MILLIMETRE',#70)LENGTH_UNIT()NAMED_UNIT(#73));
#34= (NAMED_UNIT(#75)PLANE_ANGLE_UNIT()SI_UNIT($,.RADIAN.));
#35= (NAMED_UNIT(#75)SOLID_ANGLE_UNIT()SI_UNIT($,.STERADIAN.));
#37=PRESENTATION_STYLE_ASSIGNMENT((#81));
#38=ADVANCED_FACE('',(#82),#83,.T.);
#39=PRESENTATION_STYLE_ASSIGNMENT((#84));
#40=ADVANCED_FACE('',(#85),#86,.T.);
#41=PRESENTATION_STYLE_ASSIGNMENT((#87));
#42=ADVANCED_FACE('',(#88),#89,.F.);
#43=PRESENTATION_STYLE_ASSIGNMENT((#90));
#44=ADVANCED_FACE('',(#91),#92,.T.);
#45=PRESENTATION_STYLE_ASSIGNMENT((#93));
#46=ADVANCED_FACE('',(#94),#95,.F.);
#47=PRESENTATION_STYLE_ASSIGNMENT((#96));
#48=ADVANCED_FACE('',(#97),#98,.F.);
#49=PRESENTATION_STYLE_ASSIGNMENT((#99));
#50=ADVANCED_FACE('',(#100),#101,.T.);
#51=PRESENTATION_STYLE_ASSIGNMENT((#102));
#52=ADVANCED_FACE('',(#103),#104,.T.);
#53=PRESENTATION_STYLE_ASSIGNMENT((#105));
#54=ADVANCED_FACE('',(#106),#107,.T.);
#55=PRESENTATION_STYLE_ASSIGNMENT((#108));
#56=ADVANCED_FACE('',(#109),#110,.F.);
#57=PRESENTATION_STYLE_ASSIGNMENT((#111));
#58=ADVANCED_FACE('',(#112),#113,.F.);
#59=PRESENTATION_STYLE_ASSIGNMENT((#114));
#60=ADVANCED_FACE('',(#115),#116,.T.);
#61=PRESENTATION_STYLE_ASSIGNMENT((#117));
#62=ADVANCED_FACE('',(#118),#119,.T.);
#63=PRESENTATION_STYLE_ASSIGNMENT((#120));
#64=MANIFOLD_SOLID_BREP('2020_01_20__08-50-45-301',#121);
#65=PRODUCT('2020_01_20__08-50-45-301','','PART--DESC',(#122));
#66=PRODUCT_DEFINITION('','NONE',#123,#2);
#67=AXIS2_PLACEMENT_3D('',#124,#125,#126);
#70=LENGTH_MEASURE_WITH_UNIT(LENGTH_MEASURE(1.0),#127);
#73=DIMENSIONAL_EXPONENTS(1.0,0.0,0.0,0.0,0.0,0.0,0.0);
#75=DIMENSIONAL_EXPONENTS(0.0,0.0,0.0,0.0,0.0,0.0,0.0);
#81=SURFACE_STYLE_USAGE(.BOTH.,#128);
#82=FACE_OUTER_BOUND('',#129,.T.);
#83=PLANE('',#130);
#84=SURFACE_STYLE_USAGE(.BOTH.,#131);
#85=FACE_OUTER_BOUND('',#132,.T.);
#86=PLANE('',#133);
#87=SURFACE_STYLE_USAGE(.BOTH.,#134);
#88=FACE_OUTER_BOUND('',#135,.T.);
#89=PLANE('',#136);
#90=SURFACE_STYLE_USAGE(.BOTH.,#137);
#91=FACE_OUTER_BOUND('',#138,.T.);
#92=PLANE('',#139);
#93=SURFACE_STYLE_USAGE(.BOTH.,#140);
#94=FACE_OUTER_BOUND('',#141,.T.);
#95=PLANE('',#142);
#96=SURFACE_STYLE_USAGE(.BOTH.,#143);
#97=FACE_OUTER_BOUND('',#144,.T.);
#98=PLANE('',#145);
#99=SURFACE_STYLE_USAGE(.BOTH.,#146);
#100=FACE_OUTER_BOUND('',#147,.T.);
#101=PLANE('',#148);
#102=SURFACE_STYLE_USAGE(.BOTH.,#149);
#103=FACE_OUTER_BOUND('',#150,.T.);
#104=PLANE('',#151);
#105=SURFACE_STYLE_USAGE(.BOTH.,#152);
#106=FACE_OUTER_BOUND('',#153,.T.);
#107=PLANE('',#154);
#108=SURFACE_STYLE_USAGE(.BOTH.,#155);
#109=FACE_OUTER_BOUND('',#156,.T.);
#110=PLANE('',#157);
#111=SURFACE_STYLE_USAGE(.BOTH.,#158);
#112=FACE_OUTER_BOUND('',#159,.T.);
#113=PLANE('',#160);
#114=SURFACE_STYLE_USAGE(.BOTH.,#161);
#115=FACE_OUTER_BOUND('',#162,.T.);
#116=PLANE('',#163);
#117=SURFACE_STYLE_USAGE(.BOTH.,#164);
#118=FACE_OUTER_BOUND('',#165,.T.);
#119=PLANE('',#166);
#120=SURFACE_STYLE_USAGE(.BOTH.,#167);
#121=CLOSED_SHELL('',(#38,#40,#42,#44,#46,#48,#50,#52,#54,#56,#58,#60,#62));
#122=PRODUCT_CONTEXT('',#24,'mechanical');
#123=PRODUCT_DEFINITION_FORMATION_WITH_SPECIFIED_SOURCE(' ','NONE',#65,.NOT_KNOWN.);
#124=CARTESIAN_POINT('',(0.0,0.0,0.0));
#125=DIRECTION('',(0.0,0.0,1.0));
#126=DIRECTION('',(1.0,0.0,0.0));
#127= (NAMED_UNIT(#73)LENGTH_UNIT()SI_UNIT(.MILLI.,.METRE.));
#128=SURFACE_SIDE_STYLE('',(#169));
#129=EDGE_LOOP('',(#170,#171,#172,#173,#174,#175,#176,#177));
#130=AXIS2_PLACEMENT_3D('',#178,#179,#180);
#131=SURFACE_SIDE_STYLE('',(#181));
#132=EDGE_LOOP('',(#182,#183,#184,#185));
#133=AXIS2_PLACEMENT_3D('',#186,#187,#188);
#134=SURFACE_SIDE_STYLE('',(#189));
#135=EDGE_LOOP('',(#190,#191,#192,#193,#194,#195,#196,#197,#198,#199,#200));
#136=AXIS2_PLACEMENT_3D('',#201,#202,#203);
#137=SURFACE_SIDE_STYLE('',(#204));
#138=EDGE_LOOP('',(#205,#206,#207,#208));
#139=AXIS2_PLACEMENT_3D('',#209,#210,#211);
#140=SURFACE_SIDE_STYLE('',(#212));
#141=EDGE_LOOP('',(#213,#214,#215,#216,#217,#218,#219,#220));
#142=AXIS2_PLACEMENT_3D('',#221,#222,#223);
#143=SURFACE_SIDE_STYLE('',(#224));
#144=EDGE_LOOP('',(#225,#226,#227,#228));
#145=AXIS2_PLACEMENT_3D('',#229,#230,#231);
#146=SURFACE_SIDE_STYLE('',(#232));
#147=EDGE_LOOP('',(#233,#234,#235,#236));
#148=AXIS2_PLACEMENT_3D('',#237,#238,#239);
#149=SURFACE_SIDE_STYLE('',(#240));
#150=EDGE_LOOP('',(#241,#242,#243,#244));
#151=AXIS2_PLACEMENT_3D('',#245,#246,#247);
#152=SURFACE_SIDE_STYLE('',(#248));
#153=EDGE_LOOP('',(#249,#250,#251,#252));
#154=AXIS2_PLACEMENT_3D('',#253,#254,#255);
#155=SURFACE_SIDE_STYLE('',(#256));
#156=EDGE_LOOP('',(#257,#258,#259,#260));
#157=AXIS2_PLACEMENT_3D('',#261,#262,#263);
#158=SURFACE_SIDE_STYLE('',(#264));
#159=EDGE_LOOP('',(#265,#266,#267,#268));
#160=AXIS2_PLACEMENT_3D('',#269,#270,#271);
#161=SURFACE_SIDE_STYLE('',(#272));
#162=EDGE_LOOP('',(#273,#274,#275,#276));
#163=AXIS2_PLACEMENT_3D('',#277,#278,#279);
#164=SURFACE_SIDE_STYLE('',(#280));
#165=EDGE_LOOP('',(#281,#282,#283));
#166=AXIS2_PLACEMENT_3D('',#284,#285,#286);
#167=SURFACE_SIDE_STYLE('',(#287));
#169=SURFACE_STYLE_FILL_AREA(#288);
#170=ORIENTED_EDGE('',*,*,#289,.F.);
#171=ORIENTED_EDGE('',*,*,#290,.T.);
#172=ORIENTED_EDGE('',*,*,#291,.T.);
#173=ORIENTED_EDGE('',*,*,#292,.F.);
#174=ORIENTED_EDGE('',*,*,#293,.F.);
#175=ORIENTED_EDGE('',*,*,#294,.F.);
#176=ORIENTED_EDGE('',*,*,#295,.F.);
#177=ORIENTED_EDGE('',*,*,#296,.T.);
#178=CARTESIAN_POINT('',(-9.5991228833712E-015,-52.25519112969,52.25519112969));
#179=DIRECTION('',(1.29893408435324E-016,0.707106781186547,-0.707106781186548));
#180=DIRECTION('',(-1.0,0.0,-1.83697019872103E-016));
#181=SURFACE_STYLE_FILL_AREA(#297);
#182=ORIENTED_EDGE('',*,*,#289,.T.);
#183=ORIENTED_EDGE('',*,*,#298,.F.);
#184=ORIENTED_EDGE('',*,*,#299,.F.);
#185=ORIENTED_EDGE('',*,*,#300,.F.);
#186=CARTESIAN_POINT('',(24.0,-9.5,9.50000000000001));
#187=DIRECTION('',(6.12323399573676E-017,-1.83697019872103E-016,-1.0));
#188=DIRECTION('',(0.0,-1.0,1.83697019872103E-016));
#189=SURFACE_STYLE_FILL_AREA(#301);
#190=ORIENTED_EDGE('',*,*,#300,.T.);
#191=ORIENTED_EDGE('',*,*,#302,.T.);
#192=ORIENTED_EDGE('',*,*,#294,.T.);
#193=ORIENTED_EDGE('',*,*,#303,.F.);
#194=ORIENTED_EDGE('',*,*,#304,.T.);
#195=ORIENTED_EDGE('',*,*,#305,.T.);
#196=ORIENTED_EDGE('',*,*,#306,.T.);
#197=ORIENTED_EDGE('',*,*,#307,.F.);
#198=ORIENTED_EDGE('',*,*,#308,.F.);
#199=ORIENTED_EDGE('',*,*,#309,.T.);
#200=ORIENTED_EDGE('',*,*,#290,.F.);
#201=CARTESIAN_POINT('',(24.0,0.0,1.46957615897682E-015));
#202=DIRECTION('',(-1.0,1.22464679914735E-016,-6.12323399573677E-017));
#203=DIRECTION('',(-6.12323399573677E-017,0.0,1.0));
#204=SURFACE_STYLE_FILL_AREA(#310);
#205=ORIENTED_EDGE('',*,*,#291,.F.);
#206=ORIENTED_EDGE('',*,*,#309,.F.);
#207=ORIENTED_EDGE('',*,*,#311,.F.);
#208=ORIENTED_EDGE('',*,*,#312,.T.);
#209=CARTESIAN_POINT('',(19.75,-96.0,4.01605408179199E-014));
#210=DIRECTION('',(-2.24963967399278E-032,1.0,-1.83697019872103E-016));
#211=DIRECTION('',(1.0,0.0,-1.22464679914735E-016));
#212=SURFACE_STYLE_FILL_AREA(#313);
#213=ORIENTED_EDGE('',*,*,#312,.F.);
#214=ORIENTED_EDGE('',*,*,#314,.T.);
#215=ORIENTED_EDGE('',*,*,#315,.T.);
#216=ORIENTED_EDGE('',*,*,#316,.T.);
#217=ORIENTED_EDGE('',*,*,#317,.F.);
#218=ORIENTED_EDGE('',*,*,#318,.F.);
#219=ORIENTED_EDGE('',*,*,#319,.T.);
#220=ORIENTED_EDGE('',*,*,#292,.T.);
#221=CARTESIAN_POINT('',(-24.0,0.0,-1.46957615897682E-015));
#222=DIRECTION('',(1.0,-1.22464679914735E-016,-7.49879891330927E-033));
#223=DIRECTION('',(0.0,-6.12323399573677E-017,1.0));
#224=SURFACE_STYLE_FILL_AREA(#320);
#225=ORIENTED_EDGE('',*,*,#293,.T.);
#226=ORIENTED_EDGE('',*,*,#319,.F.);
#227=ORIENTED_EDGE('',*,*,#321,.F.);
#228=ORIENTED_EDGE('',*,*,#303,.T.);
#229=CARTESIAN_POINT('',(19.75,0.0,96.0));
#230=DIRECTION('',(-1.12481983699639E-032,1.83697019872103E-016,1.0));
#231=DIRECTION('',(1.0,6.12323399573676E-017,0.0));
#232=SURFACE_STYLE_FILL_AREA(#322);
#233=ORIENTED_EDGE('',*,*,#321,.T.);
#234=ORIENTED_EDGE('',*,*,#318,.T.);
#235=ORIENTED_EDGE('',*,*,#323,.T.);
#236=ORIENTED_EDGE('',*,*,#304,.F.);
#237=CARTESIAN_POINT('',(-5.69460761603519E-015,0.0,93.0));
#238=DIRECTION('',(-2.24963967399278E-032,1.0,-1.83697019872103E-016));
#239=DIRECTION('',(1.0,0.0,-1.22464679914735E-016));
#240=SURFACE_STYLE_FILL_AREA(#324);
#241=ORIENTED_EDGE('',*,*,#325,.T.);
#242=ORIENTED_EDGE('',*,*,#305,.F.);
#243=ORIENTED_EDGE('',*,*,#323,.F.);
#244=ORIENTED_EDGE('',*,*,#317,.T.);
#245=CARTESIAN_POINT('',(-6.12323399573677E-015,0.0,100.0));
#246=DIRECTION('',(-1.12481983699639E-032,1.83697019872103E-016,1.0));
#247=DIRECTION('',(1.0,6.12323399573676E-017,0.0));
#248=SURFACE_STYLE_FILL_AREA(#326);
#249=ORIENTED_EDGE('',*,*,#327,.F.);
#250=ORIENTED_EDGE('',*,*,#306,.F.);
#251=ORIENTED_EDGE('',*,*,#325,.F.);
#252=ORIENTED_EDGE('',*,*,#316,.F.);
#253=CARTESIAN_POINT('',(-7.71474378290638E-015,-12.99566363361,100.0));
#254=DIRECTION('',(-1.29893408435324E-016,-0.707106781186547,0.707106781186548));
#255=DIRECTION('',(-1.0,1.83697019872103E-016,0.0));
#256=SURFACE_STYLE_FILL_AREA(#328);
#257=ORIENTED_EDGE('',*,*,#329,.F.);
#258=ORIENTED_EDGE('',*,*,#307,.T.);
#259=ORIENTED_EDGE('',*,*,#327,.T.);
#260=ORIENTED_EDGE('',*,*,#315,.F.);
#261=CARTESIAN_POINT('',(-1.22464679914735E-014,-100.0,4.05741686029503E-014));
#262=DIRECTION('',(-2.24963967399278E-032,1.0,-1.83697019872103E-016));
#263=DIRECTION('',(1.0,0.0,-1.22464679914735E-016));
#264=SURFACE_STYLE_FILL_AREA(#330);
#265=ORIENTED_EDGE('',*,*,#311,.T.);
#266=ORIENTED_EDGE('',*,*,#308,.T.);
#267=ORIENTED_EDGE('',*,*,#329,.T.);
#268=ORIENTED_EDGE('',*,*,#314,.F.);
#269=CARTESIAN_POINT('',(-1.13892152320704E-014,-93.0,3.77339772293656E-014));
#270=DIRECTION('',(-1.12481983699639E-032,1.83697019872103E-016,1.0));
#271=DIRECTION('',(1.0,6.12323399573676E-017,0.0));
#272=SURFACE_STYLE_FILL_AREA(#331);
#273=ORIENTED_EDGE('',*,*,#302,.F.);
#274=ORIENTED_EDGE('',*,*,#299,.T.);
#275=ORIENTED_EDGE('',*,*,#332,.F.);
#276=ORIENTED_EDGE('',*,*,#295,.T.);
#277=CARTESIAN_POINT('',(24.0,-9.5,98.3));
#278=DIRECTION('',(-2.24963967399278E-032,1.0,-1.83697019872103E-016));
#279=DIRECTION('',(1.0,0.0,-1.22464679914735E-016));
#280=SURFACE_STYLE_FILL_AREA(#333);
#281=ORIENTED_EDGE('',*,*,#296,.F.);
#282=ORIENTED_EDGE('',*,*,#332,.T.);
#283=ORIENTED_EDGE('',*,*,#298,.T.);
#284=CARTESIAN_POINT('',(21.5,0.0,1.3164953090834E-015));
#285=DIRECTION('',(-1.0,1.22464679914735E-016,-6.12323399573677E-017));
#286=DIRECTION('',(-6.12323399573677E-017,0.0,1.0));
#287=SURFACE_STYLE_FILL_AREA(#334);
#288=FILL_AREA_STYLE('',(#335));
#289=EDGE_CURVE('',#336,#337,#338,.T.);
#290=EDGE_CURVE('',#336,#339,#340,.T.);
#291=EDGE_CURVE('',#339,#341,#342,.T.);
#292=EDGE_CURVE('',#343,#341,#344,.T.);
#293=EDGE_CURVE('',#345,#343,#346,.T.);
#294=EDGE_CURVE('',#347,#345,#348,.T.);
#295=EDGE_CURVE('',#349,#347,#350,.T.);
#296=EDGE_CURVE('',#349,#337,#351,.T.);
#297=FILL_AREA_STYLE('',(#352));
#298=EDGE_CURVE('',#353,#337,#354,.T.);
#299=EDGE_CURVE('',#355,#353,#356,.T.);
#300=EDGE_CURVE('',#336,#355,#357,.T.);
#301=FILL_AREA_STYLE('',(#358));
#302=EDGE_CURVE('',#355,#347,#359,.T.);
#303=EDGE_CURVE('',#360,#345,#361,.T.);
#304=EDGE_CURVE('',#360,#362,#363,.T.);
#305=EDGE_CURVE('',#362,#364,#365,.T.);
#306=EDGE_CURVE('',#364,#366,#367,.T.);
#307=EDGE_CURVE('',#368,#366,#369,.T.);
#308=EDGE_CURVE('',#370,#368,#371,.T.);
#309=EDGE_CURVE('',#370,#339,#372,.T.);
#310=FILL_AREA_STYLE('',(#373));
#311=EDGE_CURVE('',#374,#370,#375,.T.);
#312=EDGE_CURVE('',#374,#341,#376,.T.);
#313=FILL_AREA_STYLE('',(#377));
#314=EDGE_CURVE('',#374,#378,#379,.T.);
#315=EDGE_CURVE('',#378,#380,#381,.T.);
#316=EDGE_CURVE('',#380,#382,#383,.T.);
#317=EDGE_CURVE('',#384,#382,#385,.T.);
#318=EDGE_CURVE('',#386,#384,#387,.T.);
#319=EDGE_CURVE('',#386,#343,#388,.T.);
#320=FILL_AREA_STYLE('',(#389));
#321=EDGE_CURVE('',#360,#386,#390,.T.);
#322=FILL_AREA_STYLE('',(#391));
#323=EDGE_CURVE('',#384,#362,#392,.T.);
#324=FILL_AREA_STYLE('',(#393));
#325=EDGE_CURVE('',#382,#364,#394,.T.);
#326=FILL_AREA_STYLE('',(#395));
#327=EDGE_CURVE('',#366,#380,#396,.T.);
#328=FILL_AREA_STYLE('',(#397));
#329=EDGE_CURVE('',#368,#378,#398,.T.);
#330=FILL_AREA_STYLE('',(#399));
#331=FILL_AREA_STYLE('',(#400));
#332=EDGE_CURVE('',#349,#353,#401,.T.);
#333=FILL_AREA_STYLE('',(#402));
#334=FILL_AREA_STYLE('',(#403));
#335=FILL_AREA_STYLE_COLOUR('',#404);
#336=VERTEX_POINT('',#405);
#337=VERTEX_POINT('',#406);
#338=LINE('',#407,#408);
#339=VERTEX_POINT('',#409);
#340=LINE('',#410,#411);
#341=VERTEX_POINT('',#412);
#342=LINE('',#413,#414);
#343=VERTEX_POINT('',#415);
#344=LINE('',#416,#417);
#345=VERTEX_POINT('',#418);
#346=LINE('',#419,#420);
#347=VERTEX_POINT('',#421);
#348=LINE('',#422,#423);
#349=VERTEX_POINT('',#424);
#350=LINE('',#425,#426);
#351=LINE('',#427,#428);
#352=FILL_AREA_STYLE_COLOUR('',#429);
#353=VERTEX_POINT('',#430);
#354=LINE('',#431,#432);
#355=VERTEX_POINT('',#433);
#356=LINE('',#434,#435);
#357=LINE('',#436,#437);
#358=FILL_AREA_STYLE_COLOUR('',#438);
#359=LINE('',#439,#440);
#360=VERTEX_POINT('',#441);
#361=LINE('',#442,#443);
#362=VERTEX_POINT('',#444);
#363=LINE('',#445,#446);
#364=VERTEX_POINT('',#447);
#365=LINE('',#448,#449);
#366=VERTEX_POINT('',#450);
#367=LINE('',#451,#452);
#368=VERTEX_POINT('',#453);
#369=LINE('',#454,#455);
#370=VERTEX_POINT('',#456);
#371=LINE('',#457,#458);
#372=LINE('',#459,#460);
#373=FILL_AREA_STYLE_COLOUR('',#461);
#374=VERTEX_POINT('',#462);
#375=LINE('',#463,#464);
#376=LINE('',#465,#466);
#377=FILL_AREA_STYLE_COLOUR('',#467);
#378=VERTEX_POINT('',#468);
#379=LINE('',#469,#470);
#380=VERTEX_POINT('',#471);
#381=LINE('',#472,#473);
#382=VERTEX_POINT('',#474);
#383=LINE('',#475,#476);
#384=VERTEX_POINT('',#477);
#385=LINE('',#478,#479);
#386=VERTEX_POINT('',#480);
#387=LINE('',#481,#482);
#388=LINE('',#483,#484);
#389=FILL_AREA_STYLE_COLOUR('',#485);
#390=LINE('',#486,#487);
#391=FILL_AREA_STYLE_COLOUR('',#488);
#392=LINE('',#489,#490);
#393=FILL_AREA_STYLE_COLOUR('',#491);
#394=LINE('',#492,#493);
#395=FILL_AREA_STYLE_COLOUR('',#494);
#396=LINE('',#495,#496);
#397=FILL_AREA_STYLE_COLOUR('',#497);
#398=LINE('',#498,#499);
#399=FILL_AREA_STYLE_COLOUR('',#500);
#400=FILL_AREA_STYLE_COLOUR('',#501);
#401=LINE('',#502,#503);
#402=FILL_AREA_STYLE_COLOUR('',#504);
#403=FILL_AREA_STYLE_COLOUR('',#505);
#404=COLOUR_RGB('',0.61176472902298,0.61176472902298,0.650980412960052);
#405=CARTESIAN_POINT('',(24.0,-95.01038225937,9.50000000000002));
#406=CARTESIAN_POINT('',(21.5,-95.01038225937,9.50000000000002));
#407=CARTESIAN_POINT('',(24.0,-95.01038225937,9.50000000000002));
#408=VECTOR('',#506,2.5);
#409=CARTESIAN_POINT('',(24.0,-96.0,8.51038225937202));
#410=CARTESIAN_POINT('',(24.0,-95.01038225937,9.50000000000002));
#411=VECTOR('',#507,1.39953083036256);
#412=CARTESIAN_POINT('',(-24.0,-96.0,8.51038225937202));
#413=CARTESIAN_POINT('',(24.0,-96.0,8.51038225937202));
#414=VECTOR('',#508,48.0);
#415=CARTESIAN_POINT('',(-24.0,-8.51038225937197,96.0));
#416=CARTESIAN_POINT('',(-24.0,-8.51038225937197,96.0));
#417=VECTOR('',#509,123.729003975634);
#418=CARTESIAN_POINT('',(24.0,-8.51038225937202,96.0));
#419=CARTESIAN_POINT('',(24.0,-8.51038225937202,96.0));
#420=VECTOR('',#510,48.0);
#421=CARTESIAN_POINT('',(24.0,-9.5,95.01038225937));
#422=CARTESIAN_POINT('',(24.0,-9.5,95.01038225937));
#423=VECTOR('',#511,1.39953083036255);
#424=CARTESIAN_POINT('',(21.5,-9.5,95.01038225937));
#425=CARTESIAN_POINT('',(21.5,-9.5,95.01038225937));
#426=VECTOR('',#512,2.5);
#427=CARTESIAN_POINT('',(21.5,-9.5,95.01038225937));
#428=VECTOR('',#513,120.929942314909);
#429=COLOUR_RGB('',0.61176472902298,0.61176472902298,0.650980412960052);
#430=CARTESIAN_POINT('',(21.5,-9.5,9.50000000000001));
#431=CARTESIAN_POINT('',(21.5,-9.5,9.50000000000001));
#432=VECTOR('',#514,85.51038225937);
#433=CARTESIAN_POINT('',(24.0,-9.5,9.50000000000001));
#434=CARTESIAN_POINT('',(24.0,-9.5,9.50000000000001));
#435=VECTOR('',#515,2.5);
#436=CARTESIAN_POINT('',(24.0,-95.01038225937,9.50000000000002));
#437=VECTOR('',#516,85.51038225937);
#438=COLOUR_RGB('',0.61176472902298,0.61176472902298,0.650980412960052);
#439=CARTESIAN_POINT('',(24.0,-9.5,9.50000000000001));
#440=VECTOR('',#517,85.51038225937);
#441=CARTESIAN_POINT('',(24.0,0.0,96.0));
#442=CARTESIAN_POINT('',(24.0,0.0,96.0));
#443=VECTOR('',#518,8.51038225937202);
#444=CARTESIAN_POINT('',(24.0,0.0,100.0));
#445=CARTESIAN_POINT('',(24.0,0.0,96.0));
#446=VECTOR('',#519,3.99999999999999);
#447=CARTESIAN_POINT('',(24.0,-12.99566363361,100.0));
#448=CARTESIAN_POINT('',(24.0,0.0,100.0));
#449=VECTOR('',#520,12.99566363361);
#450=CARTESIAN_POINT('',(24.0,-100.0,12.99566363361));
#451=CARTESIAN_POINT('',(24.0,-12.99566363361,100.0));
#452=VECTOR('',#521,123.042712474619);
#453=CARTESIAN_POINT('',(24.0,-100.0,4.20437447619271E-014));
#454=CARTESIAN_POINT('',(24.0,-100.0,4.20437447619271E-014));
#455=VECTOR('',#522,12.99566363361);
#456=CARTESIAN_POINT('',(24.0,-96.0,4.04207782627387E-014));
#457=CARTESIAN_POINT('',(24.0,-96.0,4.04207782627387E-014));
#458=VECTOR('',#523,4.0);
#459=CARTESIAN_POINT('',(24.0,-96.0,4.04207782627387E-014));
#460=VECTOR('',#524,8.51038225937198);
#461=COLOUR_RGB('',0.61176472902298,0.61176472902298,0.650980412960052);
#462=CARTESIAN_POINT('',(-24.0,-96.0,3.74816259447851E-014));
#463=CARTESIAN_POINT('',(-24.0,-96.0,3.74816259447851E-014));
#464=VECTOR('',#525,48.0);
#465=CARTESIAN_POINT('',(-24.0,-96.0,3.74816259447851E-014));
#466=VECTOR('',#526,8.51038225937198);
#467=COLOUR_RGB('',0.61176472902298,0.61176472902298,0.650980412960052);
#468=CARTESIAN_POINT('',(-24.0,-100.0,3.91045924439735E-014));
#469=CARTESIAN_POINT('',(-24.0,-96.0,3.74816259447851E-014));
#470=VECTOR('',#527,4.0);
#471=CARTESIAN_POINT('',(-24.0,-100.0,12.99566363361));
#472=CARTESIAN_POINT('',(-24.0,-100.0,3.91045924439735E-014));
#473=VECTOR('',#528,12.99566363361);
#474=CARTESIAN_POINT('',(-24.0,-12.99566363361,100.0));
#475=CARTESIAN_POINT('',(-24.0,-100.0,12.99566363361));
#476=VECTOR('',#529,123.042712474619);
#477=CARTESIAN_POINT('',(-24.0,0.0,100.0));
#478=CARTESIAN_POINT('',(-24.0,0.0,100.0));
#479=VECTOR('',#530,12.99566363361);
#480=CARTESIAN_POINT('',(-24.0,0.0,96.0));
#481=CARTESIAN_POINT('',(-24.0,0.0,96.0));
#482=VECTOR('',#531,3.99999999999999);
#483=CARTESIAN_POINT('',(-24.0,0.0,96.0));
#484=VECTOR('',#532,8.51038225937197);
#485=COLOUR_RGB('',0.61176472902298,0.61176472902298,0.650980412960052);
#486=CARTESIAN_POINT('',(24.0,0.0,96.0));
#487=VECTOR('',#533,48.0);
#488=COLOUR_RGB('',0.61176472902298,0.61176472902298,0.650980412960052);
#489=CARTESIAN_POINT('',(-24.0,0.0,100.0));
#490=VECTOR('',#534,48.0);
#491=COLOUR_RGB('',0.61176472902298,0.61176472902298,0.650980412960052);
#492=CARTESIAN_POINT('',(-24.0,-12.99566363361,100.0));
#493=VECTOR('',#535,48.0);
#494=COLOUR_RGB('',0.61176472902298,0.61176472902298,0.650980412960052);
#495=CARTESIAN_POINT('',(24.0,-100.0,12.99566363361));
#496=VECTOR('',#536,48.0);
#497=COLOUR_RGB('',0.61176472902298,0.61176472902298,0.650980412960052);
#498=CARTESIAN_POINT('',(24.0,-100.0,4.20437447619271E-014));
#499=VECTOR('',#537,48.0);
#500=COLOUR_RGB('',0.61176472902298,0.61176472902298,0.650980412960052);
#501=COLOUR_RGB('',0.61176472902298,0.61176472902298,0.650980412960052);
#502=CARTESIAN_POINT('',(21.5,-9.5,95.01038225937));
#503=VECTOR('',#538,85.51038225937);
#504=COLOUR_RGB('',0.61176472902298,0.61176472902298,0.650980412960052);
#505=COLOUR_RGB('',0.61176472902298,0.61176472902298,0.650980412960052);
#506=DIRECTION('',(-1.0,1.22464679914735E-016,-6.12323399573677E-017));
#507=DIRECTION('',(-4.32978028117839E-017,-0.707106781186598,-0.707106781186498));
#508=DIRECTION('',(-1.0,1.22464679914735E-016,-6.12323399573677E-017));
#509=DIRECTION('',(-4.32978028117747E-017,-0.707106781186548,-0.707106781186547));
#510=DIRECTION('',(-1.0,1.22464679914735E-016,-6.12323399573677E-017));
#511=DIRECTION('',(4.32978028117655E-017,0.707106781186498,0.707106781186597));
#512=DIRECTION('',(1.0,-1.22464679914735E-016,6.12323399573677E-017));
#513=DIRECTION('',(-4.32978028117747E-017,-0.707106781186548,-0.707106781186547));
#514=DIRECTION('',(-1.22464679914735E-016,-1.0,1.83697019872103E-016));
#515=DIRECTION('',(-1.0,1.22464679914735E-016,-6.12323399573677E-017));
#516=DIRECTION('',(1.22464679914735E-016,1.0,-1.83697019872103E-016));
#517=DIRECTION('',(-6.12323399573676E-017,1.83697019872103E-016,1.0));
#518=DIRECTION('',(-1.22464679914735E-016,-1.0,1.83697019872103E-016));
#519=DIRECTION('',(-6.12323399573676E-017,1.83697019872103E-016,1.0));
#520=DIRECTION('',(-1.22464679914735E-016,-1.0,1.83697019872103E-016));
#521=DIRECTION('',(-4.32978028117747E-017,-0.707106781186548,-0.707106781186547));
#522=DIRECTION('',(-6.12323399573676E-017,1.83697019872103E-016,1.0));
#523=DIRECTION('',(-1.22464679914735E-016,-1.0,1.83697019872103E-016));
#524=DIRECTION('',(-6.12323399573676E-017,1.83697019872103E-016,1.0));
#525=DIRECTION('',(1.0,-1.22464679914735E-016,6.12323399573677E-017));
#526=DIRECTION('',(-6.12323399573676E-017,1.83697019872103E-016,1.0));
#527=DIRECTION('',(-1.22464679914735E-016,-1.0,1.83697019872103E-016));
#528=DIRECTION('',(-6.12323399573676E-017,1.83697019872103E-016,1.0));
#529=DIRECTION('',(4.32978028117747E-017,0.707106781186548,0.707106781186547));
#530=DIRECTION('',(-1.22464679914735E-016,-1.0,1.83697019872103E-016));
#531=DIRECTION('',(-6.12323399573676E-017,1.83697019872103E-016,1.0));
#532=DIRECTION('',(-1.22464679914735E-016,-1.0,1.83697019872103E-016));
#533=DIRECTION('',(-1.0,1.22464679914735E-016,-6.12323399573677E-017));
#534=DIRECTION('',(1.0,-1.22464679914735E-016,6.12323399573677E-017));
#535=DIRECTION('',(1.0,-1.22464679914735E-016,6.12323399573677E-017));
#536=DIRECTION('',(-1.0,1.22464679914735E-016,-6.12323399573677E-017));
#537=DIRECTION('',(-1.0,1.22464679914735E-016,-6.12323399573677E-017));
#538=DIRECTION('',(6.12323399573676E-017,-1.83697019872103E-016,-1.0));
ENDSEC;
END-ISO-10303-21;
