ISO-10303-21;
HEADER;
FILE_DESCRIPTION(('STEP AP214'),'1');
FILE_NAME('cctmp_BB5ECE89-15DF-4A6C-A613-93B962336958_2020_1_20_8_49_13_233..stp','2020-01-20T07:49:13',('Bosch Rexroth AG'),('CADClick - www.CADClick.com'),'Spatial InterOp 3D',' ','unknown authorization - (Healing Option Enabled)');
FILE_SCHEMA(('AUTOMOTIVE_DESIGN'));
ENDSEC;
DATA;
#1=MECHANICAL_DESIGN_GEOMETRIC_PRESENTATION_REPRESENTATION(' ',(#10,#11,#12,#13,#14,#15,#16,#17,#18,#19,#20),#6);
#2=PRODUCT_DEFINITION_CONTEXT('',#21,'design');
#3=APPLICATION_PROTOCOL_DEFINITION('INTERNATIONAL STANDARD','automotive_design',1994,#21);
#4=PRODUCT_CATEGORY_RELATIONSHIP('NONE','NONE',#22,#23);
#5=SHAPE_DEFINITION_REPRESENTATION(#24,#25);
#6= (GEOMETRIC_REPRESENTATION_CONTEXT(3)GLOBAL_UNCERTAINTY_ASSIGNED_CONTEXT((#28))GLOBAL_UNIT_ASSIGNED_CONTEXT((#30,#31,#32))REPRESENTATION_CONTEXT('NONE','WORKSPACE'));
#10=STYLED_ITEM('',(#34),#35);
#11=STYLED_ITEM('',(#36),#37);
#12=STYLED_ITEM('',(#38),#39);
#13=STYLED_ITEM('',(#40),#41);
#14=STYLED_ITEM('',(#42),#43);
#15=STYLED_ITEM('',(#44),#45);
#16=STYLED_ITEM('',(#46),#47);
#17=STYLED_ITEM('',(#48),#49);
#18=STYLED_ITEM('',(#50),#51);
#19=STYLED_ITEM('',(#52),#53);
#20=STYLED_ITEM('',(#54),#55);
#21=APPLICATION_CONTEXT(' ');
#22=PRODUCT_CATEGORY('part','NONE');
#23=PRODUCT_RELATED_PRODUCT_CATEGORY('detail',' ',(#56));
#24=PRODUCT_DEFINITION_SHAPE('NONE','NONE',#57);
#25=ADVANCED_BREP_SHAPE_REPRESENTATION('2020_01_20__08-49-13-233',(#55,#58),#6);
#28=UNCERTAINTY_MEASURE_WITH_UNIT(LENGTH_MEASURE(1.0E-006),#30,'','');
#30= (CONVERSION_BASED_UNIT('MILLIMETRE',#61)LENGTH_UNIT()NAMED_UNIT(#64));
#31= (NAMED_UNIT(#66)PLANE_ANGLE_UNIT()SI_UNIT($,.RADIAN.));
#32= (NAMED_UNIT(#66)SOLID_ANGLE_UNIT()SI_UNIT($,.STERADIAN.));
#34=PRESENTATION_STYLE_ASSIGNMENT((#72));
#35=ADVANCED_FACE('',(#73),#74,.T.);
#36=PRESENTATION_STYLE_ASSIGNMENT((#75));
#37=ADVANCED_FACE('',(#76),#77,.T.);
#38=PRESENTATION_STYLE_ASSIGNMENT((#78));
#39=ADVANCED_FACE('',(#79),#80,.F.);
#40=PRESENTATION_STYLE_ASSIGNMENT((#81));
#41=ADVANCED_FACE('',(#82),#83,.T.);
#42=PRESENTATION_STYLE_ASSIGNMENT((#84));
#43=ADVANCED_FACE('',(#85),#86,.T.);
#44=PRESENTATION_STYLE_ASSIGNMENT((#87));
#45=ADVANCED_FACE('',(#88),#89,.T.);
#46=PRESENTATION_STYLE_ASSIGNMENT((#90));
#47=ADVANCED_FACE('',(#91),#92,.F.);
#48=PRESENTATION_STYLE_ASSIGNMENT((#93));
#49=ADVANCED_FACE('',(#94),#95,.F.);
#50=PRESENTATION_STYLE_ASSIGNMENT((#96));
#51=ADVANCED_FACE('',(#97),#98,.T.);
#52=PRESENTATION_STYLE_ASSIGNMENT((#99));
#53=ADVANCED_FACE('',(#100),#101,.F.);
#54=PRESENTATION_STYLE_ASSIGNMENT((#102));
#55=MANIFOLD_SOLID_BREP('2020_01_20__08-49-13-233',#103);
#56=PRODUCT('2020_01_20__08-49-13-233','','PART--DESC',(#104));
#57=PRODUCT_DEFINITION('','NONE',#105,#2);
#58=AXIS2_PLACEMENT_3D('',#106,#107,#108);
#61=LENGTH_MEASURE_WITH_UNIT(LENGTH_MEASURE(1.0),#109);
#64=DIMENSIONAL_EXPONENTS(1.0,0.0,0.0,0.0,0.0,0.0,0.0);
#66=DIMENSIONAL_EXPONENTS(0.0,0.0,0.0,0.0,0.0,0.0,0.0);
#72=SURFACE_STYLE_USAGE(.BOTH.,#110);
#73=FACE_OUTER_BOUND('',#111,.T.);
#74=PLANE('',#112);
#75=SURFACE_STYLE_USAGE(.BOTH.,#113);
#76=FACE_OUTER_BOUND('',#114,.T.);
#77=PLANE('',#115);
#78=SURFACE_STYLE_USAGE(.BOTH.,#116);
#79=FACE_OUTER_BOUND('',#117,.T.);
#80=PLANE('',#118);
#81=SURFACE_STYLE_USAGE(.BOTH.,#119);
#82=FACE_OUTER_BOUND('',#120,.T.);
#83=PLANE('',#121);
#84=SURFACE_STYLE_USAGE(.BOTH.,#122);
#85=FACE_OUTER_BOUND('',#123,.T.);
#86=PLANE('',#124);
#87=SURFACE_STYLE_USAGE(.BOTH.,#125);
#88=FACE_OUTER_BOUND('',#126,.T.);
#89=PLANE('',#127);
#90=SURFACE_STYLE_USAGE(.BOTH.,#128);
#91=FACE_OUTER_BOUND('',#129,.T.);
#92=PLANE('',#130);
#93=SURFACE_STYLE_USAGE(.BOTH.,#131);
#94=FACE_OUTER_BOUND('',#132,.T.);
#95=PLANE('',#133);
#96=SURFACE_STYLE_USAGE(.BOTH.,#134);
#97=FACE_OUTER_BOUND('',#135,.T.);
#98=PLANE('',#136);
#99=SURFACE_STYLE_USAGE(.BOTH.,#137);
#100=FACE_OUTER_BOUND('',#138,.T.);
#101=PLANE('',#139);
#102=SURFACE_STYLE_USAGE(.BOTH.,#140);
#103=CLOSED_SHELL('',(#35,#37,#39,#41,#43,#45,#47,#49,#51,#53));
#104=PRODUCT_CONTEXT('',#21,'mechanical');
#105=PRODUCT_DEFINITION_FORMATION_WITH_SPECIFIED_SOURCE(' ','NONE',#56,.NOT_KNOWN.);
#106=CARTESIAN_POINT('',(0.0,0.0,0.0));
#107=DIRECTION('',(0.0,0.0,1.0));
#108=DIRECTION('',(1.0,0.0,0.0));
#109= (NAMED_UNIT(#64)LENGTH_UNIT()SI_UNIT(.MILLI.,.METRE.));
#110=SURFACE_SIDE_STYLE('',(#142));
#111=EDGE_LOOP('',(#143,#144,#145,#146,#147,#148,#149,#150));
#112=AXIS2_PLACEMENT_3D('',#151,#152,#153);
#113=SURFACE_SIDE_STYLE('',(#154));
#114=EDGE_LOOP('',(#155,#156,#157,#158));
#115=AXIS2_PLACEMENT_3D('',#159,#160,#161);
#116=SURFACE_SIDE_STYLE('',(#162));
#117=EDGE_LOOP('',(#163,#164,#165,#166));
#118=AXIS2_PLACEMENT_3D('',#167,#168,#169);
#119=SURFACE_SIDE_STYLE('',(#170));
#120=EDGE_LOOP('',(#171,#172,#173,#174));
#121=AXIS2_PLACEMENT_3D('',#175,#176,#177);
#122=SURFACE_SIDE_STYLE('',(#178));
#123=EDGE_LOOP('',(#179,#180,#181,#182));
#124=AXIS2_PLACEMENT_3D('',#183,#184,#185);
#125=SURFACE_SIDE_STYLE('',(#186));
#126=EDGE_LOOP('',(#187,#188,#189,#190));
#127=AXIS2_PLACEMENT_3D('',#191,#192,#193);
#128=SURFACE_SIDE_STYLE('',(#194));
#129=EDGE_LOOP('',(#195,#196,#197,#198));
#130=AXIS2_PLACEMENT_3D('',#199,#200,#201);
#131=SURFACE_SIDE_STYLE('',(#202));
#132=EDGE_LOOP('',(#203,#204,#205,#206));
#133=AXIS2_PLACEMENT_3D('',#207,#208,#209);
#134=SURFACE_SIDE_STYLE('',(#210));
#135=EDGE_LOOP('',(#211,#212,#213,#214));
#136=AXIS2_PLACEMENT_3D('',#215,#216,#217);
#137=SURFACE_SIDE_STYLE('',(#218));
#138=EDGE_LOOP('',(#219,#220,#221,#222,#223,#224,#225,#226));
#139=AXIS2_PLACEMENT_3D('',#227,#228,#229);
#140=SURFACE_SIDE_STYLE('',(#230));
#142=SURFACE_STYLE_FILL_AREA(#231);
#143=ORIENTED_EDGE('',*,*,#232,.T.);
#144=ORIENTED_EDGE('',*,*,#233,.F.);
#145=ORIENTED_EDGE('',*,*,#234,.T.);
#146=ORIENTED_EDGE('',*,*,#235,.T.);
#147=ORIENTED_EDGE('',*,*,#236,.T.);
#148=ORIENTED_EDGE('',*,*,#237,.F.);
#149=ORIENTED_EDGE('',*,*,#238,.F.);
#150=ORIENTED_EDGE('',*,*,#239,.T.);
#151=CARTESIAN_POINT('',(-24.0,2.8421709430404E-014,-1.46957615897682E-015));
#152=DIRECTION('',(-1.0,1.22464679914735E-016,-6.12323399573677E-017));
#153=DIRECTION('',(-6.12323399573677E-017,0.0,1.0));
#154=SURFACE_STYLE_FILL_AREA(#240);
#155=ORIENTED_EDGE('',*,*,#241,.T.);
#156=ORIENTED_EDGE('',*,*,#232,.F.);
#157=ORIENTED_EDGE('',*,*,#242,.T.);
#158=ORIENTED_EDGE('',*,*,#243,.F.);
#159=CARTESIAN_POINT('',(-5.00739089518148E-015,-27.25896641474,27.25896641474));
#160=DIRECTION('',(1.29893408435324E-016,0.707106781186548,-0.707106781186548));
#161=DIRECTION('',(-1.0,0.0,-1.83697019872103E-016));
#162=SURFACE_STYLE_FILL_AREA(#244);
#163=ORIENTED_EDGE('',*,*,#241,.F.);
#164=ORIENTED_EDGE('',*,*,#245,.F.);
#165=ORIENTED_EDGE('',*,*,#246,.F.);
#166=ORIENTED_EDGE('',*,*,#233,.T.);
#167=CARTESIAN_POINT('',(-20.05,-46.0,-1.22770841614522E-015));
#168=DIRECTION('',(-1.22464679914735E-016,-1.0,0.0));
#169=DIRECTION('',(-1.0,1.22464679914735E-016,0.0));
#170=SURFACE_STYLE_FILL_AREA(#247);
#171=ORIENTED_EDGE('',*,*,#246,.T.);
#172=ORIENTED_EDGE('',*,*,#248,.T.);
#173=ORIENTED_EDGE('',*,*,#249,.T.);
#174=ORIENTED_EDGE('',*,*,#234,.F.);
#175=CARTESIAN_POINT('',(-5.26598123633362E-015,-43.0,0.0));
#176=DIRECTION('',(6.12323399573677E-017,-7.49879891330929E-033,-1.0));
#177=DIRECTION('',(0.0,-1.0,7.49879891330929E-033));
#178=SURFACE_STYLE_FILL_AREA(#250);
#179=ORIENTED_EDGE('',*,*,#251,.T.);
#180=ORIENTED_EDGE('',*,*,#235,.F.);
#181=ORIENTED_EDGE('',*,*,#249,.F.);
#182=ORIENTED_EDGE('',*,*,#252,.T.);
#183=CARTESIAN_POINT('',(-6.12323399573677E-015,-50.0,0.0));
#184=DIRECTION('',(-1.22464679914735E-016,-1.0,0.0));
#185=DIRECTION('',(-1.0,1.22464679914735E-016,0.0));
#186=SURFACE_STYLE_FILL_AREA(#253);
#187=ORIENTED_EDGE('',*,*,#254,.F.);
#188=ORIENTED_EDGE('',*,*,#236,.F.);
#189=ORIENTED_EDGE('',*,*,#251,.F.);
#190=ORIENTED_EDGE('',*,*,#255,.F.);
#191=CARTESIAN_POINT('',(-6.91945122839742E-015,-50.0,13.00321420372));
#192=DIRECTION('',(-1.29893408435324E-016,-0.707106781186548,0.707106781186548));
#193=DIRECTION('',(-1.0,1.83697019872103E-016,0.0));
#194=SURFACE_STYLE_FILL_AREA(#256);
#195=ORIENTED_EDGE('',*,*,#257,.F.);
#196=ORIENTED_EDGE('',*,*,#237,.T.);
#197=ORIENTED_EDGE('',*,*,#254,.T.);
#198=ORIENTED_EDGE('',*,*,#258,.F.);
#199=CARTESIAN_POINT('',(-3.06161699786838E-015,2.8421709430404E-014,50.0));
#200=DIRECTION('',(6.12323399573677E-017,-7.49879891330929E-033,-1.0));
#201=DIRECTION('',(0.0,-1.0,7.49879891330929E-033));
#202=SURFACE_STYLE_FILL_AREA(#259);
#203=ORIENTED_EDGE('',*,*,#260,.T.);
#204=ORIENTED_EDGE('',*,*,#238,.T.);
#205=ORIENTED_EDGE('',*,*,#257,.T.);
#206=ORIENTED_EDGE('',*,*,#261,.F.);
#207=CARTESIAN_POINT('',(-2.63299061816681E-015,2.8421709430404E-014,43.0));
#208=DIRECTION('',(-1.22464679914735E-016,-1.0,0.0));
#209=DIRECTION('',(-1.0,1.22464679914735E-016,0.0));
#210=SURFACE_STYLE_FILL_AREA(#262);
#211=ORIENTED_EDGE('',*,*,#242,.F.);
#212=ORIENTED_EDGE('',*,*,#239,.F.);
#213=ORIENTED_EDGE('',*,*,#260,.F.);
#214=ORIENTED_EDGE('',*,*,#263,.T.);
#215=CARTESIAN_POINT('',(-20.05,2.8421709430404E-014,46.0));
#216=DIRECTION('',(6.12323399573677E-017,-7.49879891330929E-033,-1.0));
#217=DIRECTION('',(0.0,-1.0,7.49879891330929E-033));
#218=SURFACE_STYLE_FILL_AREA(#264);
#219=ORIENTED_EDGE('',*,*,#263,.F.);
#220=ORIENTED_EDGE('',*,*,#261,.T.);
#221=ORIENTED_EDGE('',*,*,#258,.T.);
#222=ORIENTED_EDGE('',*,*,#255,.T.);
#223=ORIENTED_EDGE('',*,*,#252,.F.);
#224=ORIENTED_EDGE('',*,*,#248,.F.);
#225=ORIENTED_EDGE('',*,*,#245,.T.);
#226=ORIENTED_EDGE('',*,*,#243,.T.);
#227=CARTESIAN_POINT('',(24.0,2.8421709430404E-014,1.46957615897682E-015));
#228=DIRECTION('',(-1.0,1.22464679914735E-016,-6.12323399573677E-017));
#229=DIRECTION('',(-6.12323399573677E-017,0.0,1.0));
#230=SURFACE_STYLE_FILL_AREA(#265);
#231=FILL_AREA_STYLE('',(#266));
#232=EDGE_CURVE('',#267,#268,#269,.T.);
#233=EDGE_CURVE('',#270,#268,#271,.T.);
#234=EDGE_CURVE('',#270,#272,#273,.T.);
#235=EDGE_CURVE('',#272,#274,#275,.T.);
#236=EDGE_CURVE('',#274,#276,#277,.T.);
#237=EDGE_CURVE('',#278,#276,#279,.T.);
#238=EDGE_CURVE('',#280,#278,#281,.T.);
#239=EDGE_CURVE('',#280,#267,#282,.T.);
#240=FILL_AREA_STYLE('',(#283));
#241=EDGE_CURVE('',#284,#268,#285,.T.);
#242=EDGE_CURVE('',#267,#286,#287,.T.);
#243=EDGE_CURVE('',#284,#286,#288,.T.);
#244=FILL_AREA_STYLE('',(#289));
#245=EDGE_CURVE('',#290,#284,#291,.T.);
#246=EDGE_CURVE('',#270,#290,#292,.T.);
#247=FILL_AREA_STYLE('',(#293));
#248=EDGE_CURVE('',#290,#294,#295,.T.);
#249=EDGE_CURVE('',#294,#272,#296,.T.);
#250=FILL_AREA_STYLE('',(#297));
#251=EDGE_CURVE('',#298,#274,#299,.T.);
#252=EDGE_CURVE('',#294,#298,#300,.T.);
#253=FILL_AREA_STYLE('',(#301));
#254=EDGE_CURVE('',#276,#302,#303,.T.);
#255=EDGE_CURVE('',#302,#298,#304,.T.);
#256=FILL_AREA_STYLE('',(#305));
#257=EDGE_CURVE('',#278,#306,#307,.T.);
#258=EDGE_CURVE('',#306,#302,#308,.T.);
#259=FILL_AREA_STYLE('',(#309));
#260=EDGE_CURVE('',#310,#280,#311,.T.);
#261=EDGE_CURVE('',#310,#306,#312,.T.);
#262=FILL_AREA_STYLE('',(#313));
#263=EDGE_CURVE('',#310,#286,#314,.T.);
#264=FILL_AREA_STYLE('',(#315));
#265=FILL_AREA_STYLE('',(#316));
#266=FILL_AREA_STYLE_COLOUR('',#317);
#267=VERTEX_POINT('',#318);
#268=VERTEX_POINT('',#319);
#269=LINE('',#320,#321);
#270=VERTEX_POINT('',#322);
#271=LINE('',#323,#324);
#272=VERTEX_POINT('',#325);
#273=LINE('',#326,#327);
#274=VERTEX_POINT('',#328);
#275=LINE('',#329,#330);
#276=VERTEX_POINT('',#331);
#277=LINE('',#332,#333);
#278=VERTEX_POINT('',#334);
#279=LINE('',#335,#336);
#280=VERTEX_POINT('',#337);
#281=LINE('',#338,#339);
#282=LINE('',#340,#341);
#283=FILL_AREA_STYLE_COLOUR('',#342);
#284=VERTEX_POINT('',#343);
#285=LINE('',#344,#345);
#286=VERTEX_POINT('',#346);
#287=LINE('',#347,#348);
#288=LINE('',#349,#350);
#289=FILL_AREA_STYLE_COLOUR('',#351);
#290=VERTEX_POINT('',#352);
#291=LINE('',#353,#354);
#292=LINE('',#355,#356);
#293=FILL_AREA_STYLE_COLOUR('',#357);
#294=VERTEX_POINT('',#358);
#295=LINE('',#359,#360);
#296=LINE('',#361,#362);
#297=FILL_AREA_STYLE_COLOUR('',#363);
#298=VERTEX_POINT('',#364);
#299=LINE('',#365,#366);
#300=LINE('',#367,#368);
#301=FILL_AREA_STYLE_COLOUR('',#369);
#302=VERTEX_POINT('',#370);
#303=LINE('',#371,#372);
#304=LINE('',#373,#374);
#305=FILL_AREA_STYLE_COLOUR('',#375);
#306=VERTEX_POINT('',#376);
#307=LINE('',#377,#378);
#308=LINE('',#379,#380);
#309=FILL_AREA_STYLE_COLOUR('',#381);
#310=VERTEX_POINT('',#382);
#311=LINE('',#383,#384);
#312=LINE('',#385,#386);
#313=FILL_AREA_STYLE_COLOUR('',#387);
#314=LINE('',#388,#389);
#315=FILL_AREA_STYLE_COLOUR('',#390);
#316=FILL_AREA_STYLE_COLOUR('',#391);
#317=COLOUR_RGB('',0.61176472902298,0.61176472902298,0.650980412960052);
#318=CARTESIAN_POINT('',(-24.0,-8.51793282948299,46.0));
#319=CARTESIAN_POINT('',(-24.0,-46.0,8.517932829483));
#320=CARTESIAN_POINT('',(-24.0,-8.51793282948299,46.0));
#321=VECTOR('',#392,53.0076477383245);
#322=CARTESIAN_POINT('',(-24.0,-46.0,-1.46957615897682E-015));
#323=CARTESIAN_POINT('',(-24.0,-46.0,-1.46957615897682E-015));
#324=VECTOR('',#393,8.517932829483);
#325=CARTESIAN_POINT('',(-24.0,-50.0,-1.46957615897682E-015));
#326=CARTESIAN_POINT('',(-24.0,-46.0,-1.46957615897682E-015));
#327=VECTOR('',#394,4.0);
#328=CARTESIAN_POINT('',(-24.0,-50.0,13.00321420372));
#329=CARTESIAN_POINT('',(-24.0,-50.0,-1.46957615897682E-015));
#330=VECTOR('',#395,13.00321420372);
#331=CARTESIAN_POINT('',(-24.0,-13.00321420372,50.0));
#332=CARTESIAN_POINT('',(-24.0,-50.0,13.00321420372));
#333=VECTOR('',#396,52.3213562373115);
#334=CARTESIAN_POINT('',(-24.0,2.8421709430404E-014,50.0));
#335=CARTESIAN_POINT('',(-24.0,2.8421709430404E-014,50.0));
#336=VECTOR('',#397,13.00321420372);
#337=CARTESIAN_POINT('',(-24.0,2.8421709430404E-014,46.0));
#338=CARTESIAN_POINT('',(-24.0,2.8421709430404E-014,46.0));
#339=VECTOR('',#398,3.99999999999999);
#340=CARTESIAN_POINT('',(-24.0,2.8421709430404E-014,46.0));
#341=VECTOR('',#399,8.51793282948302);
#342=COLOUR_RGB('',0.61176472902298,0.61176472902298,0.650980412960052);
#343=CARTESIAN_POINT('',(24.0,-46.0,8.517932829483));
#344=CARTESIAN_POINT('',(24.0,-46.0,8.517932829483));
#345=VECTOR('',#400,48.0);
#346=CARTESIAN_POINT('',(24.0,-8.51793282948299,46.0));
#347=CARTESIAN_POINT('',(-24.0,-8.51793282948299,46.0));
#348=VECTOR('',#401,48.0);
#349=CARTESIAN_POINT('',(24.0,-46.0,8.517932829483));
#350=VECTOR('',#402,53.0076477383245);
#351=COLOUR_RGB('',0.61176472902298,0.61176472902298,0.650980412960052);
#352=CARTESIAN_POINT('',(24.0,-46.0,1.46957615897682E-015));
#353=CARTESIAN_POINT('',(24.0,-46.0,1.46957615897682E-015));
#354=VECTOR('',#403,8.517932829483);
#355=CARTESIAN_POINT('',(-24.0,-46.0,-1.46957615897682E-015));
#356=VECTOR('',#404,48.0);
#357=COLOUR_RGB('',0.61176472902298,0.61176472902298,0.650980412960052);
#358=CARTESIAN_POINT('',(24.0,-50.0,1.46957615897682E-015));
#359=CARTESIAN_POINT('',(24.0,-46.0,1.46957615897682E-015));
#360=VECTOR('',#405,4.0);
#361=CARTESIAN_POINT('',(24.0,-50.0,1.46957615897682E-015));
#362=VECTOR('',#406,48.0);
#363=COLOUR_RGB('',0.61176472902298,0.61176472902298,0.650980412960052);
#364=CARTESIAN_POINT('',(24.0,-50.0,13.00321420372));
#365=CARTESIAN_POINT('',(24.0,-50.0,13.00321420372));
#366=VECTOR('',#407,48.0);
#367=CARTESIAN_POINT('',(24.0,-50.0,1.46957615897682E-015));
#368=VECTOR('',#408,13.00321420372);
#369=COLOUR_RGB('',0.61176472902298,0.61176472902298,0.650980412960052);
#370=CARTESIAN_POINT('',(24.0,-13.00321420372,50.0));
#371=CARTESIAN_POINT('',(-24.0,-13.00321420372,50.0));
#372=VECTOR('',#409,48.0);
#373=CARTESIAN_POINT('',(24.0,-13.00321420372,50.0));
#374=VECTOR('',#410,52.3213562373115);
#375=COLOUR_RGB('',0.61176472902298,0.61176472902298,0.650980412960052);
#376=CARTESIAN_POINT('',(24.0,2.8421709430404E-014,50.0));
#377=CARTESIAN_POINT('',(-24.0,2.8421709430404E-014,50.0));
#378=VECTOR('',#411,48.0);
#379=CARTESIAN_POINT('',(24.0,2.8421709430404E-014,50.0));
#380=VECTOR('',#412,13.00321420372);
#381=COLOUR_RGB('',0.61176472902298,0.61176472902298,0.650980412960052);
#382=CARTESIAN_POINT('',(24.0,2.8421709430404E-014,46.0));
#383=CARTESIAN_POINT('',(24.0,2.8421709430404E-014,46.0));
#384=VECTOR('',#413,48.0);
#385=CARTESIAN_POINT('',(24.0,2.8421709430404E-014,46.0));
#386=VECTOR('',#414,3.99999999999999);
#387=COLOUR_RGB('',0.61176472902298,0.61176472902298,0.650980412960052);
#388=CARTESIAN_POINT('',(24.0,2.8421709430404E-014,46.0));
#389=VECTOR('',#415,8.51793282948302);
#390=COLOUR_RGB('',0.61176472902298,0.61176472902298,0.650980412960052);
#391=COLOUR_RGB('',0.61176472902298,0.61176472902298,0.650980412960052);
#392=DIRECTION('',(-4.32978028117747E-017,-0.707106781186548,-0.707106781186548));
#393=DIRECTION('',(-6.12323399573677E-017,7.49879891330929E-033,1.0));
#394=DIRECTION('',(-1.22464679914735E-016,-1.0,0.0));
#395=DIRECTION('',(-6.12323399573677E-017,7.49879891330929E-033,1.0));
#396=DIRECTION('',(4.32978028117747E-017,0.707106781186548,0.707106781186548));
#397=DIRECTION('',(-1.22464679914735E-016,-1.0,0.0));
#398=DIRECTION('',(-6.12323399573677E-017,7.49879891330929E-033,1.0));
#399=DIRECTION('',(-1.22464679914735E-016,-1.0,0.0));
#400=DIRECTION('',(-1.0,1.22464679914735E-016,-6.12323399573677E-017));
#401=DIRECTION('',(1.0,-1.22464679914735E-016,6.12323399573677E-017));
#402=DIRECTION('',(4.32978028117747E-017,0.707106781186548,0.707106781186548));
#403=DIRECTION('',(-6.12323399573677E-017,7.49879891330929E-033,1.0));
#404=DIRECTION('',(1.0,-1.22464679914735E-016,6.12323399573677E-017));
#405=DIRECTION('',(-1.22464679914735E-016,-1.0,0.0));
#406=DIRECTION('',(-1.0,1.22464679914735E-016,-6.12323399573677E-017));
#407=DIRECTION('',(-1.0,1.22464679914735E-016,-6.12323399573677E-017));
#408=DIRECTION('',(-6.12323399573677E-017,7.49879891330929E-033,1.0));
#409=DIRECTION('',(1.0,-1.22464679914735E-016,6.12323399573677E-017));
#410=DIRECTION('',(-4.32978028117747E-017,-0.707106781186548,-0.707106781186548));
#411=DIRECTION('',(1.0,-1.22464679914735E-016,6.12323399573677E-017));
#412=DIRECTION('',(-1.22464679914735E-016,-1.0,0.0));
#413=DIRECTION('',(-1.0,1.22464679914735E-016,-6.12323399573677E-017));
#414=DIRECTION('',(-6.12323399573677E-017,7.49879891330929E-033,1.0));
#415=DIRECTION('',(-1.22464679914735E-016,-1.0,0.0));
ENDSEC;
END-ISO-10303-21;
