ISO-10303-21;
HEADER;
FILE_DESCRIPTION(('STEP AP214'),'1');
FILE_NAME('cctmp_8B36863F-BC21-4CFE-BD7C-9CCEF3DA1913_2020_1_20_8_47_3_518..stp','2020-01-20T07:47:03',('Bosch Rexroth AG'),('CADClick - www.CADClick.com'),'Spatial InterOp 3D',' ','unknown authorization - (Healing Option Enabled)');
FILE_SCHEMA(('AUTOMOTIVE_DESIGN'));
ENDSEC;
DATA;
#1=MECHANICAL_DESIGN_GEOMETRIC_PRESENTATION_REPRESENTATION(' ',(#10,#11,#12,#13,#14,#15,#16,#17,#18,#19,#20),#6);
#2=PRODUCT_DEFINITION_CONTEXT('',#21,'design');
#3=APPLICATION_PROTOCOL_DEFINITION('INTERNATIONAL STANDARD','automotive_design',1994,#21);
#4=PRODUCT_CATEGORY_RELATIONSHIP('NONE','NONE',#22,#23);
#5=SHAPE_DEFINITION_REPRESENTATION(#24,#25);
#6= (GEOMETRIC_REPRESENTATION_CONTEXT(3)GLOBAL_UNCERTAINTY_ASSIGNED_CONTEXT((#28))GLOBAL_UNIT_ASSIGNED_CONTEXT((#30,#31,#32))REPRESENTATION_CONTEXT('NONE','WORKSPACE'));
#10=STYLED_ITEM('',(#34),#35);
#11=STYLED_ITEM('',(#36),#37);
#12=STYLED_ITEM('',(#38),#39);
#13=STYLED_ITEM('',(#40),#41);
#14=STYLED_ITEM('',(#42),#43);
#15=STYLED_ITEM('',(#44),#45);
#16=STYLED_ITEM('',(#46),#47);
#17=STYLED_ITEM('',(#48),#49);
#18=STYLED_ITEM('',(#50),#51);
#19=STYLED_ITEM('',(#52),#53);
#20=STYLED_ITEM('',(#54),#55);
#21=APPLICATION_CONTEXT(' ');
#22=PRODUCT_CATEGORY('part','NONE');
#23=PRODUCT_RELATED_PRODUCT_CATEGORY('detail',' ',(#56));
#24=PRODUCT_DEFINITION_SHAPE('NONE','NONE',#57);
#25=ADVANCED_BREP_SHAPE_REPRESENTATION('2020_01_20__08-47-03-518',(#55,#58),#6);
#28=UNCERTAINTY_MEASURE_WITH_UNIT(LENGTH_MEASURE(1.0E-006),#30,'','');
#30= (CONVERSION_BASED_UNIT('MILLIMETRE',#61)LENGTH_UNIT()NAMED_UNIT(#64));
#31= (NAMED_UNIT(#66)PLANE_ANGLE_UNIT()SI_UNIT($,.RADIAN.));
#32= (NAMED_UNIT(#66)SOLID_ANGLE_UNIT()SI_UNIT($,.STERADIAN.));
#34=PRESENTATION_STYLE_ASSIGNMENT((#72));
#35=ADVANCED_FACE('',(#73),#74,.F.);
#36=PRESENTATION_STYLE_ASSIGNMENT((#75));
#37=ADVANCED_FACE('',(#76),#77,.F.);
#38=PRESENTATION_STYLE_ASSIGNMENT((#78));
#39=ADVANCED_FACE('',(#79),#80,.F.);
#40=PRESENTATION_STYLE_ASSIGNMENT((#81));
#41=ADVANCED_FACE('',(#82),#83,.F.);
#42=PRESENTATION_STYLE_ASSIGNMENT((#84));
#43=ADVANCED_FACE('',(#85),#86,.T.);
#44=PRESENTATION_STYLE_ASSIGNMENT((#87));
#45=ADVANCED_FACE('',(#88),#89,.T.);
#46=PRESENTATION_STYLE_ASSIGNMENT((#90));
#47=ADVANCED_FACE('',(#91),#92,.T.);
#48=PRESENTATION_STYLE_ASSIGNMENT((#93));
#49=ADVANCED_FACE('',(#94),#95,.F.);
#50=PRESENTATION_STYLE_ASSIGNMENT((#96));
#51=ADVANCED_FACE('',(#97),#98,.T.);
#52=PRESENTATION_STYLE_ASSIGNMENT((#99));
#53=ADVANCED_FACE('',(#100),#101,.T.);
#54=PRESENTATION_STYLE_ASSIGNMENT((#102));
#55=MANIFOLD_SOLID_BREP('2020_01_20__08-47-03-518',#103);
#56=PRODUCT('2020_01_20__08-47-03-518','','PART--DESC',(#104));
#57=PRODUCT_DEFINITION('','NONE',#105,#2);
#58=AXIS2_PLACEMENT_3D('',#106,#107,#108);
#61=LENGTH_MEASURE_WITH_UNIT(LENGTH_MEASURE(1.0),#109);
#64=DIMENSIONAL_EXPONENTS(1.0,0.0,0.0,0.0,0.0,0.0,0.0);
#66=DIMENSIONAL_EXPONENTS(0.0,0.0,0.0,0.0,0.0,0.0,0.0);
#72=SURFACE_STYLE_USAGE(.BOTH.,#110);
#73=FACE_OUTER_BOUND('',#111,.T.);
#74=PLANE('',#112);
#75=SURFACE_STYLE_USAGE(.BOTH.,#113);
#76=FACE_OUTER_BOUND('',#114,.T.);
#77=PLANE('',#115);
#78=SURFACE_STYLE_USAGE(.BOTH.,#116);
#79=FACE_OUTER_BOUND('',#117,.T.);
#80=PLANE('',#118);
#81=SURFACE_STYLE_USAGE(.BOTH.,#119);
#82=FACE_OUTER_BOUND('',#120,.T.);
#83=PLANE('',#121);
#84=SURFACE_STYLE_USAGE(.BOTH.,#122);
#85=FACE_OUTER_BOUND('',#123,.T.);
#86=PLANE('',#124);
#87=SURFACE_STYLE_USAGE(.BOTH.,#125);
#88=FACE_OUTER_BOUND('',#126,.T.);
#89=PLANE('',#127);
#90=SURFACE_STYLE_USAGE(.BOTH.,#128);
#91=FACE_OUTER_BOUND('',#129,.T.);
#92=PLANE('',#130);
#93=SURFACE_STYLE_USAGE(.BOTH.,#131);
#94=FACE_OUTER_BOUND('',#132,.T.);
#95=PLANE('',#133);
#96=SURFACE_STYLE_USAGE(.BOTH.,#134);
#97=FACE_OUTER_BOUND('',#135,.T.);
#98=PLANE('',#136);
#99=SURFACE_STYLE_USAGE(.BOTH.,#137);
#100=FACE_OUTER_BOUND('',#138,.T.);
#101=PLANE('',#139);
#102=SURFACE_STYLE_USAGE(.BOTH.,#140);
#103=CLOSED_SHELL('',(#35,#37,#39,#41,#43,#45,#47,#49,#51,#53));
#104=PRODUCT_CONTEXT('',#21,'mechanical');
#105=PRODUCT_DEFINITION_FORMATION_WITH_SPECIFIED_SOURCE(' ','NONE',#56,.NOT_KNOWN.);
#106=CARTESIAN_POINT('',(0.0,0.0,0.0));
#107=DIRECTION('',(0.0,0.0,1.0));
#108=DIRECTION('',(1.0,0.0,0.0));
#109= (NAMED_UNIT(#64)LENGTH_UNIT()SI_UNIT(.MILLI.,.METRE.));
#110=SURFACE_SIDE_STYLE('',(#142));
#111=EDGE_LOOP('',(#143,#144,#145,#146,#147,#148,#149,#150));
#112=AXIS2_PLACEMENT_3D('',#151,#152,#153);
#113=SURFACE_SIDE_STYLE('',(#154));
#114=EDGE_LOOP('',(#155,#156,#157,#158));
#115=AXIS2_PLACEMENT_3D('',#159,#160,#161);
#116=SURFACE_SIDE_STYLE('',(#162));
#117=EDGE_LOOP('',(#163,#164,#165,#166));
#118=AXIS2_PLACEMENT_3D('',#167,#168,#169);
#119=SURFACE_SIDE_STYLE('',(#170));
#120=EDGE_LOOP('',(#171,#172,#173,#174,#175,#176,#177,#178));
#121=AXIS2_PLACEMENT_3D('',#179,#180,#181);
#122=SURFACE_SIDE_STYLE('',(#182));
#123=EDGE_LOOP('',(#183,#184,#185,#186));
#124=AXIS2_PLACEMENT_3D('',#187,#188,#189);
#125=SURFACE_SIDE_STYLE('',(#190));
#126=EDGE_LOOP('',(#191,#192,#193,#194));
#127=AXIS2_PLACEMENT_3D('',#195,#196,#197);
#128=SURFACE_SIDE_STYLE('',(#198));
#129=EDGE_LOOP('',(#199,#200,#201,#202));
#130=AXIS2_PLACEMENT_3D('',#203,#204,#205);
#131=SURFACE_SIDE_STYLE('',(#206));
#132=EDGE_LOOP('',(#207,#208,#209,#210));
#133=AXIS2_PLACEMENT_3D('',#211,#212,#213);
#134=SURFACE_SIDE_STYLE('',(#214));
#135=EDGE_LOOP('',(#215,#216,#217,#218));
#136=AXIS2_PLACEMENT_3D('',#219,#220,#221);
#137=SURFACE_SIDE_STYLE('',(#222));
#138=EDGE_LOOP('',(#223,#224,#225,#226));
#139=AXIS2_PLACEMENT_3D('',#227,#228,#229);
#140=SURFACE_SIDE_STYLE('',(#230));
#142=SURFACE_STYLE_FILL_AREA(#231);
#143=ORIENTED_EDGE('',*,*,#232,.F.);
#144=ORIENTED_EDGE('',*,*,#233,.F.);
#145=ORIENTED_EDGE('',*,*,#234,.T.);
#146=ORIENTED_EDGE('',*,*,#235,.T.);
#147=ORIENTED_EDGE('',*,*,#236,.F.);
#148=ORIENTED_EDGE('',*,*,#237,.T.);
#149=ORIENTED_EDGE('',*,*,#238,.F.);
#150=ORIENTED_EDGE('',*,*,#239,.F.);
#151=CARTESIAN_POINT('',(-44.0,0.0,-7.105427357601E-015));
#152=DIRECTION('',(1.0,-1.22464679914735E-016,0.0));
#153=DIRECTION('',(0.0,0.0,1.0));
#154=SURFACE_STYLE_FILL_AREA(#240);
#155=ORIENTED_EDGE('',*,*,#241,.T.);
#156=ORIENTED_EDGE('',*,*,#242,.T.);
#157=ORIENTED_EDGE('',*,*,#243,.T.);
#158=ORIENTED_EDGE('',*,*,#232,.T.);
#159=CARTESIAN_POINT('',(-2.25698833180154E-030,0.0,83.0));
#160=DIRECTION('',(-1.22464679914735E-016,-1.0,0.0));
#161=DIRECTION('',(-1.0,1.22464679914735E-016,0.0));
#162=SURFACE_STYLE_FILL_AREA(#244);
#163=ORIENTED_EDGE('',*,*,#241,.F.);
#164=ORIENTED_EDGE('',*,*,#239,.T.);
#165=ORIENTED_EDGE('',*,*,#245,.T.);
#166=ORIENTED_EDGE('',*,*,#246,.F.);
#167=CARTESIAN_POINT('',(-2.44733668208469E-030,0.0,90.0));
#168=DIRECTION('',(0.0,0.0,-1.0));
#169=DIRECTION('',(0.0,-1.0,0.0));
#170=SURFACE_STYLE_FILL_AREA(#247);
#171=ORIENTED_EDGE('',*,*,#248,.T.);
#172=ORIENTED_EDGE('',*,*,#249,.F.);
#173=ORIENTED_EDGE('',*,*,#250,.T.);
#174=ORIENTED_EDGE('',*,*,#251,.T.);
#175=ORIENTED_EDGE('',*,*,#242,.F.);
#176=ORIENTED_EDGE('',*,*,#246,.T.);
#177=ORIENTED_EDGE('',*,*,#252,.T.);
#178=ORIENTED_EDGE('',*,*,#253,.F.);
#179=CARTESIAN_POINT('',(44.0,0.0,-7.105427357601E-015));
#180=DIRECTION('',(-1.0,1.22464679914735E-016,0.0));
#181=DIRECTION('',(0.0,0.0,1.0));
#182=SURFACE_STYLE_FILL_AREA(#254);
#183=ORIENTED_EDGE('',*,*,#255,.T.);
#184=ORIENTED_EDGE('',*,*,#236,.T.);
#185=ORIENTED_EDGE('',*,*,#256,.T.);
#186=ORIENTED_EDGE('',*,*,#248,.F.);
#187=CARTESIAN_POINT('',(-1.0164568432923E-014,-83.0,-7.105427357601E-015));
#188=DIRECTION('',(0.0,0.0,-1.0));
#189=DIRECTION('',(0.0,-1.0,0.0));
#190=SURFACE_STYLE_FILL_AREA(#257);
#191=ORIENTED_EDGE('',*,*,#255,.F.);
#192=ORIENTED_EDGE('',*,*,#253,.T.);
#193=ORIENTED_EDGE('',*,*,#258,.F.);
#194=ORIENTED_EDGE('',*,*,#237,.F.);
#195=CARTESIAN_POINT('',(-1.10218211923262E-014,-90.0,-7.105427357601E-015));
#196=DIRECTION('',(-1.22464679914735E-016,-1.0,0.0));
#197=DIRECTION('',(-1.0,1.22464679914735E-016,0.0));
#198=SURFACE_STYLE_FILL_AREA(#259);
#199=ORIENTED_EDGE('',*,*,#238,.T.);
#200=ORIENTED_EDGE('',*,*,#258,.T.);
#201=ORIENTED_EDGE('',*,*,#252,.F.);
#202=ORIENTED_EDGE('',*,*,#245,.F.);
#203=CARTESIAN_POINT('',(-1.10218211923262E-014,-90.0,14.36896090313));
#204=DIRECTION('',(-8.65956056235493E-017,-0.707106781186548,0.707106781186548));
#205=DIRECTION('',(-1.0,1.22464679914735E-016,0.0));
#206=SURFACE_STYLE_FILL_AREA(#260);
#207=ORIENTED_EDGE('',*,*,#261,.T.);
#208=ORIENTED_EDGE('',*,*,#249,.T.);
#209=ORIENTED_EDGE('',*,*,#256,.F.);
#210=ORIENTED_EDGE('',*,*,#235,.F.);
#211=CARTESIAN_POINT('',(-40.6,-86.0,-7.105427357601E-015));
#212=DIRECTION('',(-1.22464679914735E-016,-1.0,0.0));
#213=DIRECTION('',(-1.0,1.22464679914735E-016,0.0));
#214=SURFACE_STYLE_FILL_AREA(#262);
#215=ORIENTED_EDGE('',*,*,#263,.T.);
#216=ORIENTED_EDGE('',*,*,#250,.F.);
#217=ORIENTED_EDGE('',*,*,#261,.F.);
#218=ORIENTED_EDGE('',*,*,#234,.F.);
#219=CARTESIAN_POINT('',(-5.78458645565293E-015,-47.2347329832601,47.23473298326));
#220=DIRECTION('',(8.65956056235493E-017,0.707106781186548,-0.707106781186548));
#221=DIRECTION('',(-1.0,0.0,-1.22464679914735E-016));
#222=SURFACE_STYLE_FILL_AREA(#264);
#223=ORIENTED_EDGE('',*,*,#243,.F.);
#224=ORIENTED_EDGE('',*,*,#251,.F.);
#225=ORIENTED_EDGE('',*,*,#263,.F.);
#226=ORIENTED_EDGE('',*,*,#233,.T.);
#227=CARTESIAN_POINT('',(-40.6,0.0,86.0));
#228=DIRECTION('',(0.0,0.0,-1.0));
#229=DIRECTION('',(0.0,-1.0,0.0));
#230=SURFACE_STYLE_FILL_AREA(#265);
#231=FILL_AREA_STYLE('',(#266));
#232=EDGE_CURVE('',#267,#268,#269,.T.);
#233=EDGE_CURVE('',#270,#267,#271,.T.);
#234=EDGE_CURVE('',#270,#272,#273,.T.);
#235=EDGE_CURVE('',#272,#274,#275,.T.);
#236=EDGE_CURVE('',#276,#274,#277,.T.);
#237=EDGE_CURVE('',#276,#278,#279,.T.);
#238=EDGE_CURVE('',#280,#278,#281,.T.);
#239=EDGE_CURVE('',#268,#280,#282,.T.);
#240=FILL_AREA_STYLE('',(#283));
#241=EDGE_CURVE('',#268,#284,#285,.T.);
#242=EDGE_CURVE('',#284,#286,#287,.T.);
#243=EDGE_CURVE('',#286,#267,#288,.T.);
#244=FILL_AREA_STYLE('',(#289));
#245=EDGE_CURVE('',#280,#290,#291,.T.);
#246=EDGE_CURVE('',#284,#290,#292,.T.);
#247=FILL_AREA_STYLE('',(#293));
#248=EDGE_CURVE('',#294,#295,#296,.T.);
#249=EDGE_CURVE('',#297,#295,#298,.T.);
#250=EDGE_CURVE('',#297,#299,#300,.T.);
#251=EDGE_CURVE('',#299,#286,#301,.T.);
#252=EDGE_CURVE('',#290,#302,#303,.T.);
#253=EDGE_CURVE('',#294,#302,#304,.T.);
#254=FILL_AREA_STYLE('',(#305));
#255=EDGE_CURVE('',#294,#276,#306,.T.);
#256=EDGE_CURVE('',#274,#295,#307,.T.);
#257=FILL_AREA_STYLE('',(#308));
#258=EDGE_CURVE('',#278,#302,#309,.T.);
#259=FILL_AREA_STYLE('',(#310));
#260=FILL_AREA_STYLE('',(#311));
#261=EDGE_CURVE('',#272,#297,#312,.T.);
#262=FILL_AREA_STYLE('',(#313));
#263=EDGE_CURVE('',#270,#299,#314,.T.);
#264=FILL_AREA_STYLE('',(#315));
#265=FILL_AREA_STYLE('',(#316));
#266=FILL_AREA_STYLE_COLOUR('',#317);
#267=VERTEX_POINT('',#318);
#268=VERTEX_POINT('',#319);
#269=LINE('',#320,#321);
#270=VERTEX_POINT('',#322);
#271=LINE('',#323,#324);
#272=VERTEX_POINT('',#325);
#273=LINE('',#326,#327);
#274=VERTEX_POINT('',#328);
#275=LINE('',#329,#330);
#276=VERTEX_POINT('',#331);
#277=LINE('',#332,#333);
#278=VERTEX_POINT('',#334);
#279=LINE('',#335,#336);
#280=VERTEX_POINT('',#337);
#281=LINE('',#338,#339);
#282=LINE('',#340,#341);
#283=FILL_AREA_STYLE_COLOUR('',#342);
#284=VERTEX_POINT('',#343);
#285=LINE('',#344,#345);
#286=VERTEX_POINT('',#346);
#287=LINE('',#347,#348);
#288=LINE('',#349,#350);
#289=FILL_AREA_STYLE_COLOUR('',#351);
#290=VERTEX_POINT('',#352);
#291=LINE('',#353,#354);
#292=LINE('',#355,#356);
#293=FILL_AREA_STYLE_COLOUR('',#357);
#294=VERTEX_POINT('',#358);
#295=VERTEX_POINT('',#359);
#296=LINE('',#360,#361);
#297=VERTEX_POINT('',#362);
#298=LINE('',#363,#364);
#299=VERTEX_POINT('',#365);
#300=LINE('',#366,#367);
#301=LINE('',#368,#369);
#302=VERTEX_POINT('',#370);
#303=LINE('',#371,#372);
#304=LINE('',#373,#374);
#305=FILL_AREA_STYLE_COLOUR('',#375);
#306=LINE('',#376,#377);
#307=LINE('',#378,#379);
#308=FILL_AREA_STYLE_COLOUR('',#380);
#309=LINE('',#381,#382);
#310=FILL_AREA_STYLE_COLOUR('',#383);
#311=FILL_AREA_STYLE_COLOUR('',#384);
#312=LINE('',#385,#386);
#313=FILL_AREA_STYLE_COLOUR('',#387);
#314=LINE('',#388,#389);
#315=FILL_AREA_STYLE_COLOUR('',#390);
#316=FILL_AREA_STYLE_COLOUR('',#391);
#317=COLOUR_RGB('',0.0117647061124444,0.0196078438311815,0.0392156876623631);
#318=CARTESIAN_POINT('',(-44.0,0.0,86.0));
#319=CARTESIAN_POINT('',(-44.0,0.0,90.0));
#320=CARTESIAN_POINT('',(-44.0,0.0,86.0));
#321=VECTOR('',#392,4.0);
#322=CARTESIAN_POINT('',(-44.0,-8.46946596652288,86.0));
#323=CARTESIAN_POINT('',(-44.0,-8.46946596652288,86.0));
#324=VECTOR('',#393,8.46946596652288);
#325=CARTESIAN_POINT('',(-44.0,-86.0,8.469465966523));
#326=CARTESIAN_POINT('',(-44.0,-8.46946596652288,86.0));
#327=VECTOR('',#394,109.644732728172);
#328=CARTESIAN_POINT('',(-44.0,-86.0,-7.105427357601E-015));
#329=CARTESIAN_POINT('',(-44.0,-86.0,8.469465966523));
#330=VECTOR('',#395,8.46946596652301);
#331=CARTESIAN_POINT('',(-44.0,-90.0,-7.105427357601E-015));
#332=CARTESIAN_POINT('',(-44.0,-90.0,-7.105427357601E-015));
#333=VECTOR('',#396,4.0);
#334=CARTESIAN_POINT('',(-44.0,-90.0,14.36896090313));
#335=CARTESIAN_POINT('',(-44.0,-90.0,-7.105427357601E-015));
#336=VECTOR('',#397,14.36896090313);
#337=CARTESIAN_POINT('',(-44.0,-14.3689609031298,90.0));
#338=CARTESIAN_POINT('',(-44.0,-14.3689609031298,90.0));
#339=VECTOR('',#398,106.958441227164);
#340=CARTESIAN_POINT('',(-44.0,0.0,90.0));
#341=VECTOR('',#399,14.3689609031298);
#342=COLOUR_RGB('',0.0117647061124444,0.0196078438311815,0.0392156876623631);
#343=CARTESIAN_POINT('',(44.0,0.0,90.0));
#344=CARTESIAN_POINT('',(-44.0,0.0,90.0));
#345=VECTOR('',#400,88.0);
#346=CARTESIAN_POINT('',(44.0,0.0,86.0));
#347=CARTESIAN_POINT('',(44.0,0.0,90.0));
#348=VECTOR('',#401,4.0);
#349=CARTESIAN_POINT('',(44.0,0.0,86.0));
#350=VECTOR('',#402,88.0);
#351=COLOUR_RGB('',0.0117647061124444,0.0196078438311815,0.0392156876623631);
#352=CARTESIAN_POINT('',(44.0,-14.3689609031301,90.0));
#353=CARTESIAN_POINT('',(-44.0,-14.3689609031298,90.0));
#354=VECTOR('',#403,88.0);
#355=CARTESIAN_POINT('',(44.0,0.0,90.0));
#356=VECTOR('',#404,14.3689609031301);
#357=COLOUR_RGB('',0.0117647061124444,0.0196078438311815,0.0392156876623631);
#358=CARTESIAN_POINT('',(44.0,-90.0,-7.105427357601E-015));
#359=CARTESIAN_POINT('',(44.0,-86.0,-7.105427357601E-015));
#360=CARTESIAN_POINT('',(44.0,-90.0,-7.105427357601E-015));
#361=VECTOR('',#405,4.0);
#362=CARTESIAN_POINT('',(44.0,-86.0,8.469465966523));
#363=CARTESIAN_POINT('',(44.0,-86.0,8.469465966523));
#364=VECTOR('',#406,8.46946596652301);
#365=CARTESIAN_POINT('',(44.0,-8.46946596652288,86.0));
#366=CARTESIAN_POINT('',(44.0,-86.0,8.469465966523));
#367=VECTOR('',#407,109.644732728172);
#368=CARTESIAN_POINT('',(44.0,-8.46946596652288,86.0));
#369=VECTOR('',#408,8.46946596652288);
#370=CARTESIAN_POINT('',(44.0,-90.0,14.36896090313));
#371=CARTESIAN_POINT('',(44.0,-14.3689609031301,90.0));
#372=VECTOR('',#409,106.958441227163);
#373=CARTESIAN_POINT('',(44.0,-90.0,-7.105427357601E-015));
#374=VECTOR('',#410,14.36896090313);
#375=COLOUR_RGB('',0.0117647061124444,0.0196078438311815,0.0392156876623631);
#376=CARTESIAN_POINT('',(44.0,-90.0,-7.105427357601E-015));
#377=VECTOR('',#411,88.0);
#378=CARTESIAN_POINT('',(-44.0,-86.0,-7.105427357601E-015));
#379=VECTOR('',#412,88.0);
#380=COLOUR_RGB('',0.0117647061124444,0.0196078438311815,0.0392156876623631);
#381=CARTESIAN_POINT('',(-44.0,-90.0,14.36896090313));
#382=VECTOR('',#413,88.0);
#383=COLOUR_RGB('',0.0117647061124444,0.0196078438311815,0.0392156876623631);
#384=COLOUR_RGB('',0.0117647061124444,0.0196078438311815,0.0392156876623631);
#385=CARTESIAN_POINT('',(-44.0,-86.0,8.469465966523));
#386=VECTOR('',#414,88.0);
#387=COLOUR_RGB('',0.0117647061124444,0.0196078438311815,0.0392156876623631);
#388=CARTESIAN_POINT('',(-44.0,-8.46946596652288,86.0));
#389=VECTOR('',#415,88.0);
#390=COLOUR_RGB('',0.0117647061124444,0.0196078438311815,0.0392156876623631);
#391=COLOUR_RGB('',0.0117647061124444,0.0196078438311815,0.0392156876623631);
#392=DIRECTION('',(0.0,0.0,1.0));
#393=DIRECTION('',(1.22464679914735E-016,1.0,0.0));
#394=DIRECTION('',(-8.65956056235492E-017,-0.707106781186548,-0.707106781186548));
#395=DIRECTION('',(0.0,0.0,-1.0));
#396=DIRECTION('',(1.22464679914735E-016,1.0,0.0));
#397=DIRECTION('',(0.0,0.0,1.0));
#398=DIRECTION('',(-8.65956056235492E-017,-0.707106781186548,-0.707106781186548));
#399=DIRECTION('',(-1.22464679914735E-016,-1.0,0.0));
#400=DIRECTION('',(1.0,-1.22464679914735E-016,0.0));
#401=DIRECTION('',(0.0,0.0,-1.0));
#402=DIRECTION('',(-1.0,1.22464679914735E-016,0.0));
#403=DIRECTION('',(1.0,-1.22464679914735E-016,0.0));
#404=DIRECTION('',(-1.22464679914735E-016,-1.0,0.0));
#405=DIRECTION('',(1.22464679914735E-016,1.0,0.0));
#406=DIRECTION('',(0.0,0.0,-1.0));
#407=DIRECTION('',(8.65956056235492E-017,0.707106781186548,0.707106781186548));
#408=DIRECTION('',(1.22464679914735E-016,1.0,0.0));
#409=DIRECTION('',(-8.65956056235492E-017,-0.707106781186548,-0.707106781186548));
#410=DIRECTION('',(0.0,0.0,1.0));
#411=DIRECTION('',(-1.0,1.22464679914735E-016,0.0));
#412=DIRECTION('',(1.0,-1.22464679914735E-016,0.0));
#413=DIRECTION('',(1.0,-1.22464679914735E-016,0.0));
#414=DIRECTION('',(1.0,-1.22464679914735E-016,0.0));
#415=DIRECTION('',(1.0,-1.22464679914735E-016,0.0));
ENDSEC;
END-ISO-10303-21;
