ISO-10303-21;
HEADER;
FILE_DESCRIPTION(('STEP AP214'),'1');
FILE_NAME('cctmp_4C5AD0E1-FC36-4191-9BC1-3704C2E4A7F7_2020_1_20_8_43_27_750..stp','2020-01-20T07:43:27',('Bosch Rexroth AG'),('CADClick - www.CADClick.com'),'Spatial InterOp 3D',' ','unknown authorization - (Healing Option Enabled)');
FILE_SCHEMA(('AUTOMOTIVE_DESIGN'));
ENDSEC;
DATA;
#1=MECHANICAL_DESIGN_GEOMETRIC_PRESENTATION_REPRESENTATION(' ',(#10,#11,#12,#13,#14,#15,#16,#17,#18,#19,#20,#21,#22,#23,#24,#25,#26),#6);
#2=PRODUCT_DEFINITION_CONTEXT('',#27,'design');
#3=APPLICATION_PROTOCOL_DEFINITION('INTERNATIONAL STANDARD','automotive_design',1994,#27);
#4=PRODUCT_CATEGORY_RELATIONSHIP('NONE','NONE',#28,#29);
#5=SHAPE_DEFINITION_REPRESENTATION(#30,#31);
#6= (GEOMETRIC_REPRESENTATION_CONTEXT(3)GLOBAL_UNCERTAINTY_ASSIGNED_CONTEXT((#34))GLOBAL_UNIT_ASSIGNED_CONTEXT((#36,#37,#38))REPRESENTATION_CONTEXT('NONE','WORKSPACE'));
#10=STYLED_ITEM('',(#40),#41);
#11=STYLED_ITEM('',(#42),#43);
#12=STYLED_ITEM('',(#44),#45);
#13=STYLED_ITEM('',(#46),#47);
#14=STYLED_ITEM('',(#48),#49);
#15=STYLED_ITEM('',(#50),#51);
#16=STYLED_ITEM('',(#52),#53);
#17=STYLED_ITEM('',(#54),#55);
#18=STYLED_ITEM('',(#56),#57);
#19=STYLED_ITEM('',(#58),#59);
#20=STYLED_ITEM('',(#60),#61);
#21=STYLED_ITEM('',(#62),#63);
#22=STYLED_ITEM('',(#64),#65);
#23=STYLED_ITEM('',(#66),#67);
#24=STYLED_ITEM('',(#68),#69);
#25=STYLED_ITEM('',(#70),#71);
#26=STYLED_ITEM('',(#72),#73);
#27=APPLICATION_CONTEXT(' ');
#28=PRODUCT_CATEGORY('part','NONE');
#29=PRODUCT_RELATED_PRODUCT_CATEGORY('detail',' ',(#74));
#30=PRODUCT_DEFINITION_SHAPE('NONE','NONE',#75);
#31=ADVANCED_BREP_SHAPE_REPRESENTATION('2020_01_20__08-43-27-750',(#73,#76),#6);
#34=UNCERTAINTY_MEASURE_WITH_UNIT(LENGTH_MEASURE(1.0E-006),#36,'','');
#36= (CONVERSION_BASED_UNIT('MILLIMETRE',#79)LENGTH_UNIT()NAMED_UNIT(#82));
#37= (NAMED_UNIT(#84)PLANE_ANGLE_UNIT()SI_UNIT($,.RADIAN.));
#38= (NAMED_UNIT(#84)SOLID_ANGLE_UNIT()SI_UNIT($,.STERADIAN.));
#40=PRESENTATION_STYLE_ASSIGNMENT((#90));
#41=ADVANCED_FACE('',(#91),#92,.F.);
#42=PRESENTATION_STYLE_ASSIGNMENT((#93));
#43=ADVANCED_FACE('',(#94),#95,.F.);
#44=PRESENTATION_STYLE_ASSIGNMENT((#96));
#45=ADVANCED_FACE('',(#97),#98,.F.);
#46=PRESENTATION_STYLE_ASSIGNMENT((#99));
#47=ADVANCED_FACE('',(#100),#101,.T.);
#48=PRESENTATION_STYLE_ASSIGNMENT((#102));
#49=ADVANCED_FACE('',(#103),#104,.T.);
#50=PRESENTATION_STYLE_ASSIGNMENT((#105));
#51=ADVANCED_FACE('',(#106),#107,.F.);
#52=PRESENTATION_STYLE_ASSIGNMENT((#108));
#53=ADVANCED_FACE('',(#109),#110,.F.);
#54=PRESENTATION_STYLE_ASSIGNMENT((#111));
#55=ADVANCED_FACE('',(#112),#113,.F.);
#56=PRESENTATION_STYLE_ASSIGNMENT((#114));
#57=ADVANCED_FACE('',(#115),#116,.T.);
#58=PRESENTATION_STYLE_ASSIGNMENT((#117));
#59=ADVANCED_FACE('',(#118),#119,.F.);
#60=PRESENTATION_STYLE_ASSIGNMENT((#120));
#61=ADVANCED_FACE('',(#121),#122,.T.);
#62=PRESENTATION_STYLE_ASSIGNMENT((#123));
#63=ADVANCED_FACE('',(#124),#125,.T.);
#64=PRESENTATION_STYLE_ASSIGNMENT((#126));
#65=ADVANCED_FACE('',(#127),#128,.F.);
#66=PRESENTATION_STYLE_ASSIGNMENT((#129));
#67=ADVANCED_FACE('',(#130),#131,.T.);
#68=PRESENTATION_STYLE_ASSIGNMENT((#132));
#69=ADVANCED_FACE('',(#133),#134,.T.);
#70=PRESENTATION_STYLE_ASSIGNMENT((#135));
#71=ADVANCED_FACE('',(#136),#137,.F.);
#72=PRESENTATION_STYLE_ASSIGNMENT((#138));
#73=MANIFOLD_SOLID_BREP('2020_01_20__08-43-27-750',#139);
#74=PRODUCT('2020_01_20__08-43-27-750','','PART--DESC',(#140));
#75=PRODUCT_DEFINITION('','NONE',#141,#2);
#76=AXIS2_PLACEMENT_3D('',#142,#143,#144);
#79=LENGTH_MEASURE_WITH_UNIT(LENGTH_MEASURE(1.0),#145);
#82=DIMENSIONAL_EXPONENTS(1.0,0.0,0.0,0.0,0.0,0.0,0.0);
#84=DIMENSIONAL_EXPONENTS(0.0,0.0,0.0,0.0,0.0,0.0,0.0);
#90=SURFACE_STYLE_USAGE(.BOTH.,#146);
#91=FACE_OUTER_BOUND('',#147,.T.);
#92=PLANE('',#148);
#93=SURFACE_STYLE_USAGE(.BOTH.,#149);
#94=FACE_OUTER_BOUND('',#150,.T.);
#95=PLANE('',#151);
#96=SURFACE_STYLE_USAGE(.BOTH.,#152);
#97=FACE_OUTER_BOUND('',#153,.T.);
#98=PLANE('',#154);
#99=SURFACE_STYLE_USAGE(.BOTH.,#155);
#100=FACE_OUTER_BOUND('',#156,.T.);
#101=PLANE('',#157);
#102=SURFACE_STYLE_USAGE(.BOTH.,#158);
#103=FACE_OUTER_BOUND('',#159,.T.);
#104=PLANE('',#160);
#105=SURFACE_STYLE_USAGE(.BOTH.,#161);
#106=FACE_OUTER_BOUND('',#162,.T.);
#107=PLANE('',#163);
#108=SURFACE_STYLE_USAGE(.BOTH.,#164);
#109=FACE_OUTER_BOUND('',#165,.T.);
#110=PLANE('',#166);
#111=SURFACE_STYLE_USAGE(.BOTH.,#167);
#112=FACE_OUTER_BOUND('',#168,.T.);
#113=PLANE('',#169);
#114=SURFACE_STYLE_USAGE(.BOTH.,#170);
#115=FACE_OUTER_BOUND('',#171,.T.);
#116=PLANE('',#172);
#117=SURFACE_STYLE_USAGE(.BOTH.,#173);
#118=FACE_OUTER_BOUND('',#174,.T.);
#119=PLANE('',#175);
#120=SURFACE_STYLE_USAGE(.BOTH.,#176);
#121=FACE_OUTER_BOUND('',#177,.T.);
#122=PLANE('',#178);
#123=SURFACE_STYLE_USAGE(.BOTH.,#179);
#124=FACE_OUTER_BOUND('',#180,.T.);
#125=PLANE('',#181);
#126=SURFACE_STYLE_USAGE(.BOTH.,#182);
#127=FACE_OUTER_BOUND('',#183,.T.);
#128=PLANE('',#184);
#129=SURFACE_STYLE_USAGE(.BOTH.,#185);
#130=FACE_OUTER_BOUND('',#186,.T.);
#131=PLANE('',#187);
#132=SURFACE_STYLE_USAGE(.BOTH.,#188);
#133=FACE_OUTER_BOUND('',#189,.T.);
#134=PLANE('',#190);
#135=SURFACE_STYLE_USAGE(.BOTH.,#191);
#136=FACE_OUTER_BOUND('',#192,.T.);
#137=CYLINDRICAL_SURFACE('',#193,35.0);
#138=SURFACE_STYLE_USAGE(.BOTH.,#194);
#139=CLOSED_SHELL('',(#41,#43,#45,#47,#49,#51,#53,#55,#57,#59,#61,#63,#65,#67,#69,#71));
#140=PRODUCT_CONTEXT('',#27,'mechanical');
#141=PRODUCT_DEFINITION_FORMATION_WITH_SPECIFIED_SOURCE(' ','NONE',#74,.NOT_KNOWN.);
#142=CARTESIAN_POINT('',(0.0,0.0,0.0));
#143=DIRECTION('',(0.0,0.0,1.0));
#144=DIRECTION('',(1.0,0.0,0.0));
#145= (NAMED_UNIT(#82)LENGTH_UNIT()SI_UNIT(.MILLI.,.METRE.));
#146=SURFACE_SIDE_STYLE('',(#196));
#147=EDGE_LOOP('',(#197,#198,#199,#200,#201,#202,#203,#204));
#148=AXIS2_PLACEMENT_3D('',#205,#206,#207);
#149=SURFACE_SIDE_STYLE('',(#208));
#150=EDGE_LOOP('',(#209,#210,#211,#212,#213,#214));
#151=AXIS2_PLACEMENT_3D('',#215,#216,#217);
#152=SURFACE_SIDE_STYLE('',(#218));
#153=EDGE_LOOP('',(#219,#220,#221,#222,#223,#224));
#154=AXIS2_PLACEMENT_3D('',#225,#226,#227);
#155=SURFACE_SIDE_STYLE('',(#228));
#156=EDGE_LOOP('',(#229,#230,#231));
#157=AXIS2_PLACEMENT_3D('',#232,#233,#234);
#158=SURFACE_SIDE_STYLE('',(#235));
#159=EDGE_LOOP('',(#236,#237,#238));
#160=AXIS2_PLACEMENT_3D('',#239,#240,#241);
#161=SURFACE_SIDE_STYLE('',(#242));
#162=EDGE_LOOP('',(#243,#244,#245,#246,#247));
#163=AXIS2_PLACEMENT_3D('',#248,#249,#250);
#164=SURFACE_SIDE_STYLE('',(#251));
#165=EDGE_LOOP('',(#252,#253,#254,#255));
#166=AXIS2_PLACEMENT_3D('',#256,#257,#258);
#167=SURFACE_SIDE_STYLE('',(#259));
#168=EDGE_LOOP('',(#260,#261,#262,#263,#264));
#169=AXIS2_PLACEMENT_3D('',#265,#266,#267);
#170=SURFACE_SIDE_STYLE('',(#268));
#171=EDGE_LOOP('',(#269,#270,#271,#272,#273,#274,#275,#276,#277,#278));
#172=AXIS2_PLACEMENT_3D('',#279,#280,#281);
#173=SURFACE_SIDE_STYLE('',(#282));
#174=EDGE_LOOP('',(#283,#284,#285,#286,#287,#288));
#175=AXIS2_PLACEMENT_3D('',#289,#290,#291);
#176=SURFACE_SIDE_STYLE('',(#292));
#177=EDGE_LOOP('',(#293,#294,#295,#296));
#178=AXIS2_PLACEMENT_3D('',#297,#298,#299);
#179=SURFACE_SIDE_STYLE('',(#300));
#180=EDGE_LOOP('',(#301,#302,#303,#304));
#181=AXIS2_PLACEMENT_3D('',#305,#306,#307);
#182=SURFACE_SIDE_STYLE('',(#308));
#183=EDGE_LOOP('',(#309,#310,#311,#312));
#184=AXIS2_PLACEMENT_3D('',#313,#314,#315);
#185=SURFACE_SIDE_STYLE('',(#316));
#186=EDGE_LOOP('',(#317,#318,#319,#320));
#187=AXIS2_PLACEMENT_3D('',#321,#322,#323);
#188=SURFACE_SIDE_STYLE('',(#324));
#189=EDGE_LOOP('',(#325,#326,#327,#328));
#190=AXIS2_PLACEMENT_3D('',#329,#330,#331);
#191=SURFACE_SIDE_STYLE('',(#332));
#192=EDGE_LOOP('',(#333,#334,#335,#336));
#193=AXIS2_PLACEMENT_3D('',#337,#338,#339);
#194=SURFACE_SIDE_STYLE('',(#340));
#196=SURFACE_STYLE_FILL_AREA(#341);
#197=ORIENTED_EDGE('',*,*,#342,.T.);
#198=ORIENTED_EDGE('',*,*,#343,.F.);
#199=ORIENTED_EDGE('',*,*,#344,.F.);
#200=ORIENTED_EDGE('',*,*,#345,.F.);
#201=ORIENTED_EDGE('',*,*,#346,.T.);
#202=ORIENTED_EDGE('',*,*,#347,.F.);
#203=ORIENTED_EDGE('',*,*,#348,.F.);
#204=ORIENTED_EDGE('',*,*,#349,.T.);
#205=CARTESIAN_POINT('',(-21.5,-93.4999999999999,1.3164953090834E-015));
#206=DIRECTION('',(1.0,-1.83697019872103E-016,1.12481983699639E-032));
#207=DIRECTION('',(0.0,6.12323399573677E-017,1.0));
#208=SURFACE_STYLE_FILL_AREA(#350);
#209=ORIENTED_EDGE('',*,*,#351,.T.);
#210=ORIENTED_EDGE('',*,*,#342,.F.);
#211=ORIENTED_EDGE('',*,*,#352,.F.);
#212=ORIENTED_EDGE('',*,*,#353,.T.);
#213=ORIENTED_EDGE('',*,*,#354,.T.);
#214=ORIENTED_EDGE('',*,*,#355,.T.);
#215=CARTESIAN_POINT('',(-21.5,-82.4999999999999,15.00649350649));
#216=DIRECTION('',(-1.41179861903345E-016,-0.908118475168157,0.41871330890988));
#217=DIRECTION('',(-1.0,1.55464144562418E-016,0.0));
#218=SURFACE_STYLE_FILL_AREA(#356);
#219=ORIENTED_EDGE('',*,*,#357,.T.);
#220=ORIENTED_EDGE('',*,*,#358,.F.);
#221=ORIENTED_EDGE('',*,*,#359,.F.);
#222=ORIENTED_EDGE('',*,*,#360,.F.);
#223=ORIENTED_EDGE('',*,*,#343,.T.);
#224=ORIENTED_EDGE('',*,*,#351,.F.);
#225=CARTESIAN_POINT('',(-21.5,-85.4999999999999,183.5));
#226=DIRECTION('',(-1.83697019872103E-016,-1.0,0.0));
#227=DIRECTION('',(-1.0,1.83697019872103E-016,0.0));
#228=SURFACE_STYLE_FILL_AREA(#361);
#229=ORIENTED_EDGE('',*,*,#362,.T.);
#230=ORIENTED_EDGE('',*,*,#353,.F.);
#231=ORIENTED_EDGE('',*,*,#363,.T.);
#232=CARTESIAN_POINT('',(19.0,-93.4999999999999,-1.16341445918999E-015));
#233=DIRECTION('',(1.0,-1.83697019872103E-016,1.12481983699639E-032));
#234=DIRECTION('',(0.0,6.12323399573677E-017,1.0));
#235=SURFACE_STYLE_FILL_AREA(#364);
#236=ORIENTED_EDGE('',*,*,#357,.F.);
#237=ORIENTED_EDGE('',*,*,#355,.F.);
#238=ORIENTED_EDGE('',*,*,#365,.T.);
#239=CARTESIAN_POINT('',(19.0,-93.4999999999999,-1.16341445918999E-015));
#240=DIRECTION('',(1.0,-1.83697019872103E-016,1.12481983699639E-032));
#241=DIRECTION('',(0.0,6.12323399573677E-017,1.0));
#242=SURFACE_STYLE_FILL_AREA(#366);
#243=ORIENTED_EDGE('',*,*,#362,.F.);
#244=ORIENTED_EDGE('',*,*,#367,.T.);
#245=ORIENTED_EDGE('',*,*,#368,.F.);
#246=ORIENTED_EDGE('',*,*,#369,.T.);
#247=ORIENTED_EDGE('',*,*,#370,.F.);
#248=CARTESIAN_POINT('',(21.5,-9.49999999999989,172.5));
#249=DIRECTION('',(-1.83697019872103E-016,-1.0,0.0));
#250=DIRECTION('',(-1.0,1.83697019872103E-016,0.0));
#251=SURFACE_STYLE_FILL_AREA(#371);
#252=ORIENTED_EDGE('',*,*,#354,.F.);
#253=ORIENTED_EDGE('',*,*,#370,.T.);
#254=ORIENTED_EDGE('',*,*,#372,.T.);
#255=ORIENTED_EDGE('',*,*,#373,.T.);
#256=CARTESIAN_POINT('',(19.0,-93.4999999999999,-1.16341445918999E-015));
#257=DIRECTION('',(1.0,-1.83697019872103E-016,1.12481983699639E-032));
#258=DIRECTION('',(0.0,6.12323399573677E-017,1.0));
#259=SURFACE_STYLE_FILL_AREA(#374);
#260=ORIENTED_EDGE('',*,*,#365,.F.);
#261=ORIENTED_EDGE('',*,*,#373,.F.);
#262=ORIENTED_EDGE('',*,*,#375,.F.);
#263=ORIENTED_EDGE('',*,*,#376,.F.);
#264=ORIENTED_EDGE('',*,*,#358,.T.);
#265=CARTESIAN_POINT('',(21.5,-33.6860505253999,9.5));
#266=DIRECTION('',(-4.59169004331692E-049,-7.49879891330925E-033,1.0));
#267=DIRECTION('',(1.0,-6.12323399573677E-017,0.0));
#268=SURFACE_STYLE_FILL_AREA(#377);
#269=ORIENTED_EDGE('',*,*,#378,.F.);
#270=ORIENTED_EDGE('',*,*,#379,.T.);
#271=ORIENTED_EDGE('',*,*,#380,.T.);
#272=ORIENTED_EDGE('',*,*,#381,.F.);
#273=ORIENTED_EDGE('',*,*,#382,.T.);
#274=ORIENTED_EDGE('',*,*,#383,.T.);
#275=ORIENTED_EDGE('',*,*,#359,.T.);
#276=ORIENTED_EDGE('',*,*,#376,.T.);
#277=ORIENTED_EDGE('',*,*,#384,.F.);
#278=ORIENTED_EDGE('',*,*,#368,.T.);
#279=CARTESIAN_POINT('',(21.5,-93.4999999999999,-1.3164953090834E-015));
#280=DIRECTION('',(1.0,-1.83697019872103E-016,1.12481983699639E-032));
#281=DIRECTION('',(0.0,6.12323399573677E-017,1.0));
#282=SURFACE_STYLE_FILL_AREA(#385);
#283=ORIENTED_EDGE('',*,*,#352,.T.);
#284=ORIENTED_EDGE('',*,*,#349,.F.);
#285=ORIENTED_EDGE('',*,*,#386,.F.);
#286=ORIENTED_EDGE('',*,*,#378,.T.);
#287=ORIENTED_EDGE('',*,*,#367,.F.);
#288=ORIENTED_EDGE('',*,*,#363,.F.);
#289=CARTESIAN_POINT('',(-21.5,1.13686837721616E-013,175.5));
#290=DIRECTION('',(-4.59169004331692E-049,-7.49879891330925E-033,1.0));
#291=DIRECTION('',(1.0,-6.12323399573677E-017,0.0));
#292=SURFACE_STYLE_FILL_AREA(#387);
#293=ORIENTED_EDGE('',*,*,#386,.T.);
#294=ORIENTED_EDGE('',*,*,#348,.T.);
#295=ORIENTED_EDGE('',*,*,#388,.T.);
#296=ORIENTED_EDGE('',*,*,#379,.F.);
#297=CARTESIAN_POINT('',(-21.5,1.13686837721616E-013,1.3164953090834E-015));
#298=DIRECTION('',(6.19878155847786E-048,1.0,3.37445951098918E-032));
#299=DIRECTION('',(1.0,0.0,-1.83697019872103E-016));
#300=SURFACE_STYLE_FILL_AREA(#389);
#301=ORIENTED_EDGE('',*,*,#347,.T.);
#302=ORIENTED_EDGE('',*,*,#390,.T.);
#303=ORIENTED_EDGE('',*,*,#380,.F.);
#304=ORIENTED_EDGE('',*,*,#388,.F.);
#305=CARTESIAN_POINT('',(-21.5,1.13686837721616E-013,183.5));
#306=DIRECTION('',(-4.59169004331692E-049,-7.49879891330925E-033,1.0));
#307=DIRECTION('',(1.0,-6.12323399573677E-017,0.0));
#308=SURFACE_STYLE_FILL_AREA(#391);
#309=ORIENTED_EDGE('',*,*,#346,.F.);
#310=ORIENTED_EDGE('',*,*,#392,.T.);
#311=ORIENTED_EDGE('',*,*,#381,.T.);
#312=ORIENTED_EDGE('',*,*,#390,.F.);
#313=CARTESIAN_POINT('',(-25.8,-93.4999999999999,15.03204027781));
#314=DIRECTION('',(1.41179861903345E-016,0.908118475168157,-0.41871330890988));
#315=DIRECTION('',(-1.0,0.0,-3.37175482362638E-016));
#316=SURFACE_STYLE_FILL_AREA(#393);
#317=ORIENTED_EDGE('',*,*,#345,.T.);
#318=ORIENTED_EDGE('',*,*,#394,.T.);
#319=ORIENTED_EDGE('',*,*,#382,.F.);
#320=ORIENTED_EDGE('',*,*,#392,.F.);
#321=CARTESIAN_POINT('',(-21.5,-93.4999999999999,183.5));
#322=DIRECTION('',(-1.83697019872103E-016,-1.0,0.0));
#323=DIRECTION('',(-1.0,1.83697019872103E-016,0.0));
#324=SURFACE_STYLE_FILL_AREA(#395);
#325=ORIENTED_EDGE('',*,*,#360,.T.);
#326=ORIENTED_EDGE('',*,*,#383,.F.);
#327=ORIENTED_EDGE('',*,*,#394,.F.);
#328=ORIENTED_EDGE('',*,*,#344,.T.);
#329=CARTESIAN_POINT('',(-21.5,-93.4999999999999,1.3164953090834E-015));
#330=DIRECTION('',(-6.12323399573677E-017,1.12481983699639E-032,-1.0));
#331=DIRECTION('',(-1.0,0.0,6.12323399573677E-017));
#332=SURFACE_STYLE_FILL_AREA(#396);
#333=ORIENTED_EDGE('',*,*,#384,.T.);
#334=ORIENTED_EDGE('',*,*,#375,.T.);
#335=ORIENTED_EDGE('',*,*,#372,.F.);
#336=ORIENTED_EDGE('',*,*,#369,.F.);
#337=CARTESIAN_POINT('',(21.5,1.13686837721616E-013,-1.3164953090834E-015));
#338=DIRECTION('',(-1.0,1.83697019872103E-016,6.12323399573677E-017));
#339=DIRECTION('',(1.83697019872103E-016,1.0,0.0));
#340=SURFACE_STYLE_FILL_AREA(#397);
#341=FILL_AREA_STYLE('',(#398));
#342=EDGE_CURVE('',#399,#400,#401,.T.);
#343=EDGE_CURVE('',#402,#400,#403,.T.);
#344=EDGE_CURVE('',#404,#402,#405,.T.);
#345=EDGE_CURVE('',#406,#404,#407,.T.);
#346=EDGE_CURVE('',#406,#408,#409,.T.);
#347=EDGE_CURVE('',#410,#408,#411,.T.);
#348=EDGE_CURVE('',#412,#410,#413,.T.);
#349=EDGE_CURVE('',#412,#399,#414,.T.);
#350=FILL_AREA_STYLE('',(#415));
#351=EDGE_CURVE('',#416,#400,#417,.T.);
#352=EDGE_CURVE('',#418,#399,#419,.T.);
#353=EDGE_CURVE('',#418,#420,#421,.T.);
#354=EDGE_CURVE('',#420,#422,#423,.T.);
#355=EDGE_CURVE('',#422,#416,#424,.T.);
#356=FILL_AREA_STYLE('',(#425));
#357=EDGE_CURVE('',#416,#426,#427,.T.);
#358=EDGE_CURVE('',#428,#426,#429,.T.);
#359=EDGE_CURVE('',#430,#428,#431,.T.);
#360=EDGE_CURVE('',#402,#430,#432,.T.);
#361=FILL_AREA_STYLE('',(#433));
#362=EDGE_CURVE('',#434,#420,#435,.T.);
#363=EDGE_CURVE('',#418,#434,#436,.T.);
#364=FILL_AREA_STYLE('',(#437));
#365=EDGE_CURVE('',#422,#426,#438,.T.);
#366=FILL_AREA_STYLE('',(#439));
#367=EDGE_CURVE('',#434,#440,#441,.T.);
#368=EDGE_CURVE('',#442,#440,#443,.T.);
#369=EDGE_CURVE('',#442,#444,#445,.T.);
#370=EDGE_CURVE('',#420,#444,#446,.T.);
#371=FILL_AREA_STYLE('',(#447));
#372=EDGE_CURVE('',#444,#448,#449,.T.);
#373=EDGE_CURVE('',#448,#422,#450,.T.);
#374=FILL_AREA_STYLE('',(#451));
#375=EDGE_CURVE('',#452,#448,#453,.T.);
#376=EDGE_CURVE('',#428,#452,#454,.T.);
#377=FILL_AREA_STYLE('',(#455));
#378=EDGE_CURVE('',#456,#440,#457,.T.);
#379=EDGE_CURVE('',#456,#458,#459,.T.);
#380=EDGE_CURVE('',#458,#460,#461,.T.);
#381=EDGE_CURVE('',#462,#460,#463,.T.);
#382=EDGE_CURVE('',#462,#464,#465,.T.);
#383=EDGE_CURVE('',#464,#430,#466,.T.);
#384=EDGE_CURVE('',#442,#452,#467,.T.);
#385=FILL_AREA_STYLE('',(#468));
#386=EDGE_CURVE('',#456,#412,#469,.T.);
#387=FILL_AREA_STYLE('',(#470));
#388=EDGE_CURVE('',#410,#458,#471,.T.);
#389=FILL_AREA_STYLE('',(#472));
#390=EDGE_CURVE('',#408,#460,#473,.T.);
#391=FILL_AREA_STYLE('',(#474));
#392=EDGE_CURVE('',#406,#462,#475,.T.);
#393=FILL_AREA_STYLE('',(#476));
#394=EDGE_CURVE('',#404,#464,#477,.T.);
#395=FILL_AREA_STYLE('',(#478));
#396=FILL_AREA_STYLE('',(#479));
#397=FILL_AREA_STYLE('',(#480));
#398=FILL_AREA_STYLE_COLOUR('',#481);
#399=VERTEX_POINT('',#482);
#400=VERTEX_POINT('',#483);
#401=LINE('',#484,#485);
#402=VERTEX_POINT('',#486);
#403=LINE('',#487,#488);
#404=VERTEX_POINT('',#489);
#405=LINE('',#490,#491);
#406=VERTEX_POINT('',#492);
#407=LINE('',#493,#494);
#408=VERTEX_POINT('',#495);
#409=LINE('',#496,#497);
#410=VERTEX_POINT('',#498);
#411=LINE('',#499,#500);
#412=VERTEX_POINT('',#501);
#413=LINE('',#502,#503);
#414=LINE('',#504,#505);
#415=FILL_AREA_STYLE_COLOUR('',#506);
#416=VERTEX_POINT('',#507);
#417=LINE('',#508,#509);
#418=VERTEX_POINT('',#510);
#419=LINE('',#511,#512);
#420=VERTEX_POINT('',#513);
#421=LINE('',#514,#515);
#422=VERTEX_POINT('',#516);
#423=LINE('',#517,#518);
#424=LINE('',#519,#520);
#425=FILL_AREA_STYLE_COLOUR('',#521);
#426=VERTEX_POINT('',#522);
#427=LINE('',#523,#524);
#428=VERTEX_POINT('',#525);
#429=LINE('',#526,#527);
#430=VERTEX_POINT('',#528);
#431=LINE('',#529,#530);
#432=LINE('',#531,#532);
#433=FILL_AREA_STYLE_COLOUR('',#533);
#434=VERTEX_POINT('',#534);
#435=LINE('',#535,#536);
#436=LINE('',#537,#538);
#437=FILL_AREA_STYLE_COLOUR('',#539);
#438=LINE('',#540,#541);
#439=FILL_AREA_STYLE_COLOUR('',#542);
#440=VERTEX_POINT('',#543);
#441=LINE('',#544,#545);
#442=VERTEX_POINT('',#546);
#443=LINE('',#547,#548);
#444=VERTEX_POINT('',#549);
#445=LINE('',#550,#551);
#446=LINE('',#552,#553);
#447=FILL_AREA_STYLE_COLOUR('',#554);
#448=VERTEX_POINT('',#555);
#449=CIRCLE('',#556,35.0);
#450=LINE('',#557,#558);
#451=FILL_AREA_STYLE_COLOUR('',#559);
#452=VERTEX_POINT('',#560);
#453=LINE('',#561,#562);
#454=LINE('',#563,#564);
#455=FILL_AREA_STYLE_COLOUR('',#565);
#456=VERTEX_POINT('',#566);
#457=LINE('',#567,#568);
#458=VERTEX_POINT('',#569);
#459=LINE('',#570,#571);
#460=VERTEX_POINT('',#572);
#461=LINE('',#573,#574);
#462=VERTEX_POINT('',#575);
#463=LINE('',#576,#577);
#464=VERTEX_POINT('',#578);
#465=LINE('',#579,#580);
#466=LINE('',#581,#582);
#467=CIRCLE('',#583,35.0);
#468=FILL_AREA_STYLE_COLOUR('',#584);
#469=LINE('',#585,#586);
#470=FILL_AREA_STYLE_COLOUR('',#587);
#471=LINE('',#588,#589);
#472=FILL_AREA_STYLE_COLOUR('',#590);
#473=LINE('',#591,#592);
#474=FILL_AREA_STYLE_COLOUR('',#593);
#475=LINE('',#594,#595);
#476=FILL_AREA_STYLE_COLOUR('',#596);
#477=LINE('',#597,#598);
#478=FILL_AREA_STYLE_COLOUR('',#599);
#479=FILL_AREA_STYLE_COLOUR('',#600);
#480=FILL_AREA_STYLE_COLOUR('',#601);
#481=COLOUR_RGB('',0.61176472902298,0.61176472902298,0.650980412960052);
#482=CARTESIAN_POINT('',(-21.5,-8.49999999999989,175.5));
#483=CARTESIAN_POINT('',(-21.5,-85.4999999999999,8.499999999998));
#484=CARTESIAN_POINT('',(-21.5,-8.49999999999989,175.5));
#485=VECTOR('',#602,183.896710139145);
#486=CARTESIAN_POINT('',(-21.5,-85.4999999999999,1.3164953090834E-015));
#487=CARTESIAN_POINT('',(-21.5,-85.4999999999999,1.3164953090834E-015));
#488=VECTOR('',#603,8.499999999998);
#489=CARTESIAN_POINT('',(-21.5,-93.4999999999999,1.3164953090834E-015));
#490=CARTESIAN_POINT('',(-21.5,-93.4999999999999,1.3164953090834E-015));
#491=VECTOR('',#604,8.00000000000001);
#492=CARTESIAN_POINT('',(-21.5,-93.4999999999999,15.03204027781));
#493=CARTESIAN_POINT('',(-21.5,-93.4999999999999,15.03204027781));
#494=VECTOR('',#605,15.03204027781);
#495=CARTESIAN_POINT('',(-21.5,-15.8231562957599,183.5));
#496=CARTESIAN_POINT('',(-21.5,-93.4999999999999,15.03204027781));
#497=VECTOR('',#606,185.513194950684);
#498=CARTESIAN_POINT('',(-21.5,1.13686837721616E-013,183.5));
#499=CARTESIAN_POINT('',(-21.5,1.13686837721616E-013,183.5));
#500=VECTOR('',#607,15.82315629576);
#501=CARTESIAN_POINT('',(-21.5,1.13686837721616E-013,175.5));
#502=CARTESIAN_POINT('',(-21.5,1.13686837721616E-013,175.5));
#503=VECTOR('',#608,8.00000000000001);
#504=CARTESIAN_POINT('',(-21.5,1.13686837721616E-013,175.5));
#505=VECTOR('',#609,8.5);
#506=COLOUR_RGB('',0.61176472902298,0.61176472902298,0.650980412960052);
#507=CARTESIAN_POINT('',(19.0,-85.4999999999999,8.499999999998));
#508=CARTESIAN_POINT('',(19.0,-85.4999999999999,8.499999999998));
#509=VECTOR('',#610,40.5);
#510=CARTESIAN_POINT('',(19.0,-8.49999999999989,175.5));
#511=CARTESIAN_POINT('',(19.0,-8.49999999999989,175.5));
#512=VECTOR('',#611,40.5);
#513=CARTESIAN_POINT('',(19.0,-9.49999999999989,173.3311688312));
#514=CARTESIAN_POINT('',(19.0,-8.49999999999989,175.5));
#515=VECTOR('',#612,2.38826896281773);
#516=CARTESIAN_POINT('',(19.0,-85.038922155688,9.5));
#517=CARTESIAN_POINT('',(19.0,-9.49999999999989,173.3311688312));
#518=VECTOR('',#613,180.4072632713);
#519=CARTESIAN_POINT('',(19.0,-85.038922155688,9.5));
#520=VECTOR('',#614,1.10117790502686);
#521=COLOUR_RGB('',0.61176472902298,0.61176472902298,0.650980412960052);
#522=CARTESIAN_POINT('',(19.0,-85.4999999999999,9.5));
#523=CARTESIAN_POINT('',(19.0,-85.4999999999999,8.499999999998));
#524=VECTOR('',#615,1.0);
#525=CARTESIAN_POINT('',(21.5,-85.4999999999999,9.5));
#526=CARTESIAN_POINT('',(21.5,-85.4999999999999,9.5));
#527=VECTOR('',#616,2.5);
#528=CARTESIAN_POINT('',(21.5,-85.4999999999999,-1.3164953090834E-015));
#529=CARTESIAN_POINT('',(21.5,-85.4999999999999,-1.3164953090834E-015));
#530=VECTOR('',#617,9.5);
#531=CARTESIAN_POINT('',(-21.5,-85.4999999999999,1.3164953090834E-015));
#532=VECTOR('',#618,43.0);
#533=COLOUR_RGB('',0.61176472902298,0.61176472902298,0.650980412960052);
#534=CARTESIAN_POINT('',(19.0,-9.49999999999989,175.5));
#535=CARTESIAN_POINT('',(19.0,-9.49999999999989,175.5));
#536=VECTOR('',#619,2.16883116880002);
#537=CARTESIAN_POINT('',(19.0,-8.49999999999989,175.5));
#538=VECTOR('',#620,1.0);
#539=COLOUR_RGB('',0.61176472902298,0.61176472902298,0.650980412960052);
#540=CARTESIAN_POINT('',(19.0,-85.038922155688,9.5));
#541=VECTOR('',#621,0.461077844311948);
#542=COLOUR_RGB('',0.61176472902298,0.61176472902298,0.650980412960052);
#543=CARTESIAN_POINT('',(21.5,-9.49999999999989,175.5));
#544=CARTESIAN_POINT('',(19.0,-9.49999999999989,175.5));
#545=VECTOR('',#622,2.5);
#546=CARTESIAN_POINT('',(21.5,-9.49999999999989,33.6860505254));
#547=CARTESIAN_POINT('',(21.5,-9.49999999999989,33.6860505254));
#548=VECTOR('',#623,141.8139494746);
#549=CARTESIAN_POINT('',(19.0,-9.49999999999989,33.6860505254));
#550=CARTESIAN_POINT('',(21.5,-9.49999999999989,33.6860505254));
#551=VECTOR('',#624,2.5);
#552=CARTESIAN_POINT('',(19.0,-9.49999999999989,173.3311688312));
#553=VECTOR('',#625,139.6451183058);
#554=COLOUR_RGB('',0.61176472902298,0.61176472902298,0.650980412960052);
#555=CARTESIAN_POINT('',(19.0,-33.6860505253999,9.5));
#556=AXIS2_PLACEMENT_3D('',#626,#627,#628);
#557=CARTESIAN_POINT('',(19.0,-33.6860505253999,9.5));
#558=VECTOR('',#629,51.3528716302881);
#559=COLOUR_RGB('',0.61176472902298,0.61176472902298,0.650980412960052);
#560=CARTESIAN_POINT('',(21.5,-33.6860505253999,9.5));
#561=CARTESIAN_POINT('',(21.5,-33.6860505253999,9.5));
#562=VECTOR('',#630,2.5);
#563=CARTESIAN_POINT('',(21.5,-85.4999999999999,9.5));
#564=VECTOR('',#631,51.8139494746);
#565=COLOUR_RGB('',0.61176472902298,0.61176472902298,0.650980412960052);
#566=CARTESIAN_POINT('',(21.5,1.13686837721616E-013,175.5));
#567=CARTESIAN_POINT('',(21.5,1.13686837721616E-013,175.5));
#568=VECTOR('',#632,9.5);
#569=CARTESIAN_POINT('',(21.5,1.13686837721616E-013,183.5));
#570=CARTESIAN_POINT('',(21.5,1.13686837721616E-013,175.5));
#571=VECTOR('',#633,8.00000000000001);
#572=CARTESIAN_POINT('',(21.5,-15.82315629576,183.5));
#573=CARTESIAN_POINT('',(21.5,1.13686837721616E-013,183.5));
#574=VECTOR('',#634,15.8231562957601);
#575=CARTESIAN_POINT('',(21.5,-93.4999999999999,15.03204027781));
#576=CARTESIAN_POINT('',(21.5,-93.4999999999999,15.03204027781));
#577=VECTOR('',#635,185.513194950684);
#578=CARTESIAN_POINT('',(21.5,-93.4999999999999,-1.3164953090834E-015));
#579=CARTESIAN_POINT('',(21.5,-93.4999999999999,15.03204027781));
#580=VECTOR('',#636,15.03204027781);
#581=CARTESIAN_POINT('',(21.5,-93.4999999999999,-1.3164953090834E-015));
#582=VECTOR('',#637,8.00000000000001);
#583=AXIS2_PLACEMENT_3D('',#638,#639,#640);
#584=COLOUR_RGB('',0.61176472902298,0.61176472902298,0.650980412960052);
#585=CARTESIAN_POINT('',(21.5,1.13686837721616E-013,175.5));
#586=VECTOR('',#641,43.0);
#587=COLOUR_RGB('',0.61176472902298,0.61176472902298,0.650980412960052);
#588=CARTESIAN_POINT('',(-21.5,1.13686837721616E-013,183.5));
#589=VECTOR('',#642,43.0);
#590=COLOUR_RGB('',0.61176472902298,0.61176472902298,0.650980412960052);
#591=CARTESIAN_POINT('',(-21.5,-15.8231562957599,183.5));
#592=VECTOR('',#643,43.0);
#593=COLOUR_RGB('',0.61176472902298,0.61176472902298,0.650980412960052);
#594=CARTESIAN_POINT('',(-21.5,-93.4999999999999,15.03204027781));
#595=VECTOR('',#644,43.0);
#596=COLOUR_RGB('',0.61176472902298,0.61176472902298,0.650980412960052);
#597=CARTESIAN_POINT('',(-21.5,-93.4999999999999,1.3164953090834E-015));
#598=VECTOR('',#645,43.0);
#599=COLOUR_RGB('',0.61176472902298,0.61176472902298,0.650980412960052);
#600=COLOUR_RGB('',0.61176472902298,0.61176472902298,0.650980412960052);
#601=COLOUR_RGB('',0.61176472902298,0.61176472902298,0.650980412960052);
#602=DIRECTION('',(-1.32522606220595E-016,-0.41871330890988,-0.908118475168157));
#603=DIRECTION('',(6.12323399573676E-017,-1.12481983699639E-032,1.0));
#604=DIRECTION('',(1.83697019872103E-016,1.0,0.0));
#605=DIRECTION('',(-6.12323399573677E-017,1.12481983699639E-032,-1.0));
#606=DIRECTION('',(1.32522606220595E-016,0.41871330890988,0.908118475168157));
#607=DIRECTION('',(-1.83697019872103E-016,-1.0,0.0));
#608=DIRECTION('',(6.12323399573677E-017,-1.12481983699639E-032,1.0));
#609=DIRECTION('',(-1.83697019872103E-016,-1.0,0.0));
#610=DIRECTION('',(-1.0,1.83697019872103E-016,6.12323399573677E-017));
#611=DIRECTION('',(-1.0,1.83697019872103E-016,6.12323399573677E-017));
#612=DIRECTION('',(-1.32522606220595E-016,-0.41871330890988,-0.908118475168157));
#613=DIRECTION('',(-1.32522606220595E-016,-0.41871330890988,-0.908118475168157));
#614=DIRECTION('',(-1.32522606220595E-016,-0.41871330890988,-0.908118475168157));
#615=DIRECTION('',(6.12323399573677E-017,-1.12481983699639E-032,1.0));
#616=DIRECTION('',(-1.0,1.83697019872103E-016,6.12323399573677E-017));
#617=DIRECTION('',(6.12323399573677E-017,-1.12481983699639E-032,1.0));
#618=DIRECTION('',(1.0,-1.83697019872103E-016,-6.12323399573677E-017));
#619=DIRECTION('',(-6.12323399573677E-017,1.12481983699639E-032,-1.0));
#620=DIRECTION('',(-1.83697019872103E-016,-1.0,0.0));
#621=DIRECTION('',(-1.83697019872103E-016,-1.0,0.0));
#622=DIRECTION('',(1.0,-1.83697019872103E-016,-6.12323399573677E-017));
#623=DIRECTION('',(6.12323399573677E-017,-1.12481983699639E-032,1.0));
#624=DIRECTION('',(-1.0,1.83697019872103E-016,6.12323399573677E-017));
#625=DIRECTION('',(-6.12323399573677E-017,1.12481983699639E-032,-1.0));
#626=CARTESIAN_POINT('',(19.0,1.13686837721616E-013,-1.16341445918999E-015));
#627=DIRECTION('',(1.0,-1.83697019872103E-016,-6.12323399573677E-017));
#628=DIRECTION('',(9.07297168021148E-018,-0.271428571428594,0.962458586440078));
#629=DIRECTION('',(-1.83697019872103E-016,-1.0,0.0));
#630=DIRECTION('',(-1.0,1.83697019872103E-016,6.12323399573677E-017));
#631=DIRECTION('',(1.83697019872103E-016,1.0,0.0));
#632=DIRECTION('',(-1.83697019872103E-016,-1.0,0.0));
#633=DIRECTION('',(6.12323399573677E-017,-1.12481983699639E-032,1.0));
#634=DIRECTION('',(-1.83697019872103E-016,-1.0,0.0));
#635=DIRECTION('',(1.32522606220595E-016,0.41871330890988,0.908118475168157));
#636=DIRECTION('',(-6.12323399573677E-017,1.12481983699639E-032,-1.0));
#637=DIRECTION('',(1.83697019872103E-016,1.0,0.0));
#638=CARTESIAN_POINT('',(21.5,1.13686837721616E-013,-1.3164953090834E-015));
#639=DIRECTION('',(1.0,-1.83697019872103E-016,-6.12323399573677E-017));
#640=DIRECTION('',(9.07297168021148E-018,-0.271428571428594,0.962458586440078));
#641=DIRECTION('',(-1.0,1.83697019872103E-016,6.12323399573677E-017));
#642=DIRECTION('',(1.0,-1.83697019872103E-016,-6.12323399573677E-017));
#643=DIRECTION('',(1.0,-1.83697019872103E-016,-6.12323399573677E-017));
#644=DIRECTION('',(1.0,-1.83697019872103E-016,-6.12323399573677E-017));
#645=DIRECTION('',(1.0,-1.83697019872103E-016,-6.12323399573677E-017));
ENDSEC;
END-ISO-10303-21;
