ISO-10303-21;
HEADER;
FILE_DESCRIPTION(('STEP AP214'),'1');
FILE_NAME('cctmp_4F9AADCE-6826-4D47-8EC3-84BEDEF16D9F_2020_1_20_8_40_8_717..stp','2020-01-20T07:40:08',('Bosch Rexroth AG'),('CADClick - www.CADClick.com'),'Spatial InterOp 3D',' ','unknown authorization - (Healing Option Enabled)');
FILE_SCHEMA(('AUTOMOTIVE_DESIGN'));
ENDSEC;
DATA;
#1=MECHANICAL_DESIGN_GEOMETRIC_PRESENTATION_REPRESENTATION(' ',(#10,#11,#12,#13,#14,#15,#16,#17,#18,#19,#20,#21,#22,#23),#6);
#2=PRODUCT_DEFINITION_CONTEXT('',#24,'design');
#3=APPLICATION_PROTOCOL_DEFINITION('INTERNATIONAL STANDARD','automotive_design',1994,#24);
#4=PRODUCT_CATEGORY_RELATIONSHIP('NONE','NONE',#25,#26);
#5=SHAPE_DEFINITION_REPRESENTATION(#27,#28);
#6= (GEOMETRIC_REPRESENTATION_CONTEXT(3)GLOBAL_UNCERTAINTY_ASSIGNED_CONTEXT((#31))GLOBAL_UNIT_ASSIGNED_CONTEXT((#33,#34,#35))REPRESENTATION_CONTEXT('NONE','WORKSPACE'));
#10=STYLED_ITEM('',(#37),#38);
#11=STYLED_ITEM('',(#39),#40);
#12=STYLED_ITEM('',(#41),#42);
#13=STYLED_ITEM('',(#43),#44);
#14=STYLED_ITEM('',(#45),#46);
#15=STYLED_ITEM('',(#47),#48);
#16=STYLED_ITEM('',(#49),#50);
#17=STYLED_ITEM('',(#51),#52);
#18=STYLED_ITEM('',(#53),#54);
#19=STYLED_ITEM('',(#55),#56);
#20=STYLED_ITEM('',(#57),#58);
#21=STYLED_ITEM('',(#59),#60);
#22=STYLED_ITEM('',(#61),#62);
#23=STYLED_ITEM('',(#63),#64);
#24=APPLICATION_CONTEXT(' ');
#25=PRODUCT_CATEGORY('part','NONE');
#26=PRODUCT_RELATED_PRODUCT_CATEGORY('detail',' ',(#65));
#27=PRODUCT_DEFINITION_SHAPE('NONE','NONE',#66);
#28=ADVANCED_BREP_SHAPE_REPRESENTATION('2020_01_20__08-40-08-717',(#64,#67),#6);
#31=UNCERTAINTY_MEASURE_WITH_UNIT(LENGTH_MEASURE(1.0E-006),#33,'','');
#33= (CONVERSION_BASED_UNIT('MILLIMETRE',#70)LENGTH_UNIT()NAMED_UNIT(#73));
#34= (NAMED_UNIT(#75)PLANE_ANGLE_UNIT()SI_UNIT($,.RADIAN.));
#35= (NAMED_UNIT(#75)SOLID_ANGLE_UNIT()SI_UNIT($,.STERADIAN.));
#37=PRESENTATION_STYLE_ASSIGNMENT((#81));
#38=ADVANCED_FACE('',(#82),#83,.T.);
#39=PRESENTATION_STYLE_ASSIGNMENT((#84));
#40=ADVANCED_FACE('',(#85),#86,.T.);
#41=PRESENTATION_STYLE_ASSIGNMENT((#87));
#42=ADVANCED_FACE('',(#88),#89,.F.);
#43=PRESENTATION_STYLE_ASSIGNMENT((#90));
#44=ADVANCED_FACE('',(#91),#92,.F.);
#45=PRESENTATION_STYLE_ASSIGNMENT((#93));
#46=ADVANCED_FACE('',(#94),#95,.T.);
#47=PRESENTATION_STYLE_ASSIGNMENT((#96));
#48=ADVANCED_FACE('',(#97),#98,.T.);
#49=PRESENTATION_STYLE_ASSIGNMENT((#99));
#50=ADVANCED_FACE('',(#100),#101,.T.);
#51=PRESENTATION_STYLE_ASSIGNMENT((#102));
#52=ADVANCED_FACE('',(#103),#104,.F.);
#53=PRESENTATION_STYLE_ASSIGNMENT((#105));
#54=ADVANCED_FACE('',(#106),#107,.F.);
#55=PRESENTATION_STYLE_ASSIGNMENT((#108));
#56=ADVANCED_FACE('',(#109),#110,.T.);
#57=PRESENTATION_STYLE_ASSIGNMENT((#111));
#58=ADVANCED_FACE('',(#112),#113,.T.);
#59=PRESENTATION_STYLE_ASSIGNMENT((#114));
#60=ADVANCED_FACE('',(#115),#116,.T.);
#61=PRESENTATION_STYLE_ASSIGNMENT((#117));
#62=ADVANCED_FACE('',(#118),#119,.T.);
#63=PRESENTATION_STYLE_ASSIGNMENT((#120));
#64=MANIFOLD_SOLID_BREP('2020_01_20__08-40-08-717',#121);
#65=PRODUCT('2020_01_20__08-40-08-717','','PART--DESC',(#122));
#66=PRODUCT_DEFINITION('','NONE',#123,#2);
#67=AXIS2_PLACEMENT_3D('',#124,#125,#126);
#70=LENGTH_MEASURE_WITH_UNIT(LENGTH_MEASURE(1.0),#127);
#73=DIMENSIONAL_EXPONENTS(1.0,0.0,0.0,0.0,0.0,0.0,0.0);
#75=DIMENSIONAL_EXPONENTS(0.0,0.0,0.0,0.0,0.0,0.0,0.0);
#81=SURFACE_STYLE_USAGE(.BOTH.,#128);
#82=FACE_OUTER_BOUND('',#129,.T.);
#83=PLANE('',#130);
#84=SURFACE_STYLE_USAGE(.BOTH.,#131);
#85=FACE_OUTER_BOUND('',#132,.T.);
#86=PLANE('',#133);
#87=SURFACE_STYLE_USAGE(.BOTH.,#134);
#88=FACE_OUTER_BOUND('',#135,.T.);
#89=PLANE('',#136);
#90=SURFACE_STYLE_USAGE(.BOTH.,#137);
#91=FACE_OUTER_BOUND('',#138,.T.);
#92=PLANE('',#139);
#93=SURFACE_STYLE_USAGE(.BOTH.,#140);
#94=FACE_OUTER_BOUND('',#141,.T.);
#95=PLANE('',#142);
#96=SURFACE_STYLE_USAGE(.BOTH.,#143);
#97=FACE_OUTER_BOUND('',#144,.T.);
#98=PLANE('',#145);
#99=SURFACE_STYLE_USAGE(.BOTH.,#146);
#100=FACE_OUTER_BOUND('',#147,.T.);
#101=PLANE('',#148);
#102=SURFACE_STYLE_USAGE(.BOTH.,#149);
#103=FACE_OUTER_BOUND('',#150,.T.);
#104=PLANE('',#151);
#105=SURFACE_STYLE_USAGE(.BOTH.,#152);
#106=FACE_OUTER_BOUND('',#153,.T.);
#107=PLANE('',#154);
#108=SURFACE_STYLE_USAGE(.BOTH.,#155);
#109=FACE_OUTER_BOUND('',#156,.T.);
#110=PLANE('',#157);
#111=SURFACE_STYLE_USAGE(.BOTH.,#158);
#112=FACE_OUTER_BOUND('',#159,.T.);
#113=PLANE('',#160);
#114=SURFACE_STYLE_USAGE(.BOTH.,#161);
#115=FACE_OUTER_BOUND('',#162,.T.);
#116=PLANE('',#163);
#117=SURFACE_STYLE_USAGE(.BOTH.,#164);
#118=FACE_OUTER_BOUND('',#165,.T.);
#119=PLANE('',#166);
#120=SURFACE_STYLE_USAGE(.BOTH.,#167);
#121=CLOSED_SHELL('',(#38,#40,#42,#44,#46,#48,#50,#52,#54,#56,#58,#60,#62));
#122=PRODUCT_CONTEXT('',#24,'mechanical');
#123=PRODUCT_DEFINITION_FORMATION_WITH_SPECIFIED_SOURCE(' ','NONE',#65,.NOT_KNOWN.);
#124=CARTESIAN_POINT('',(0.0,0.0,0.0));
#125=DIRECTION('',(0.0,0.0,1.0));
#126=DIRECTION('',(1.0,0.0,0.0));
#127= (NAMED_UNIT(#73)LENGTH_UNIT()SI_UNIT(.MILLI.,.METRE.));
#128=SURFACE_SIDE_STYLE('',(#169));
#129=EDGE_LOOP('',(#170,#171,#172,#173,#174,#175,#176,#177));
#130=AXIS2_PLACEMENT_3D('',#178,#179,#180);
#131=SURFACE_SIDE_STYLE('',(#181));
#132=EDGE_LOOP('',(#182,#183,#184,#185));
#133=AXIS2_PLACEMENT_3D('',#186,#187,#188);
#134=SURFACE_SIDE_STYLE('',(#189));
#135=EDGE_LOOP('',(#190,#191,#192,#193,#194,#195,#196,#197,#198,#199,#200));
#136=AXIS2_PLACEMENT_3D('',#201,#202,#203);
#137=SURFACE_SIDE_STYLE('',(#204));
#138=EDGE_LOOP('',(#205,#206,#207,#208));
#139=AXIS2_PLACEMENT_3D('',#209,#210,#211);
#140=SURFACE_SIDE_STYLE('',(#212));
#141=EDGE_LOOP('',(#213,#214,#215,#216));
#142=AXIS2_PLACEMENT_3D('',#217,#218,#219);
#143=SURFACE_SIDE_STYLE('',(#220));
#144=EDGE_LOOP('',(#221,#222,#223,#224));
#145=AXIS2_PLACEMENT_3D('',#225,#226,#227);
#146=SURFACE_SIDE_STYLE('',(#228));
#147=EDGE_LOOP('',(#229,#230,#231,#232));
#148=AXIS2_PLACEMENT_3D('',#233,#234,#235);
#149=SURFACE_SIDE_STYLE('',(#236));
#150=EDGE_LOOP('',(#237,#238,#239,#240));
#151=AXIS2_PLACEMENT_3D('',#241,#242,#243);
#152=SURFACE_SIDE_STYLE('',(#244));
#153=EDGE_LOOP('',(#245,#246,#247,#248));
#154=AXIS2_PLACEMENT_3D('',#249,#250,#251);
#155=SURFACE_SIDE_STYLE('',(#252));
#156=EDGE_LOOP('',(#253,#254,#255,#256));
#157=AXIS2_PLACEMENT_3D('',#257,#258,#259);
#158=SURFACE_SIDE_STYLE('',(#260));
#159=EDGE_LOOP('',(#261,#262,#263,#264,#265,#266,#267,#268));
#160=AXIS2_PLACEMENT_3D('',#269,#270,#271);
#161=SURFACE_SIDE_STYLE('',(#272));
#162=EDGE_LOOP('',(#273,#274,#275,#276));
#163=AXIS2_PLACEMENT_3D('',#277,#278,#279);
#164=SURFACE_SIDE_STYLE('',(#280));
#165=EDGE_LOOP('',(#281,#282,#283));
#166=AXIS2_PLACEMENT_3D('',#284,#285,#286);
#167=SURFACE_SIDE_STYLE('',(#287));
#169=SURFACE_STYLE_FILL_AREA(#288);
#170=ORIENTED_EDGE('',*,*,#289,.F.);
#171=ORIENTED_EDGE('',*,*,#290,.T.);
#172=ORIENTED_EDGE('',*,*,#291,.T.);
#173=ORIENTED_EDGE('',*,*,#292,.F.);
#174=ORIENTED_EDGE('',*,*,#293,.T.);
#175=ORIENTED_EDGE('',*,*,#294,.F.);
#176=ORIENTED_EDGE('',*,*,#295,.T.);
#177=ORIENTED_EDGE('',*,*,#296,.F.);
#178=CARTESIAN_POINT('',(-5.78458645565293E-015,-47.2347329832599,47.23473298326));
#179=DIRECTION('',(8.65956056235493E-017,0.707106781186548,-0.707106781186548));
#180=DIRECTION('',(-1.0,0.0,-1.22464679914735E-016));
#181=SURFACE_STYLE_FILL_AREA(#297);
#182=ORIENTED_EDGE('',*,*,#289,.T.);
#183=ORIENTED_EDGE('',*,*,#298,.F.);
#184=ORIENTED_EDGE('',*,*,#299,.F.);
#185=ORIENTED_EDGE('',*,*,#300,.F.);
#186=CARTESIAN_POINT('',(21.5,-9.49999999999993,9.5));
#187=DIRECTION('',(0.0,0.0,-1.0));
#188=DIRECTION('',(0.0,-1.0,0.0));
#189=SURFACE_STYLE_FILL_AREA(#301);
#190=ORIENTED_EDGE('',*,*,#302,.F.);
#191=ORIENTED_EDGE('',*,*,#303,.T.);
#192=ORIENTED_EDGE('',*,*,#304,.T.);
#193=ORIENTED_EDGE('',*,*,#305,.T.);
#194=ORIENTED_EDGE('',*,*,#306,.F.);
#195=ORIENTED_EDGE('',*,*,#307,.F.);
#196=ORIENTED_EDGE('',*,*,#308,.T.);
#197=ORIENTED_EDGE('',*,*,#290,.F.);
#198=ORIENTED_EDGE('',*,*,#300,.T.);
#199=ORIENTED_EDGE('',*,*,#309,.T.);
#200=ORIENTED_EDGE('',*,*,#294,.T.);
#201=CARTESIAN_POINT('',(21.5,7.105427357601E-014,0.0));
#202=DIRECTION('',(-1.0,1.22464679914735E-016,0.0));
#203=DIRECTION('',(0.0,0.0,1.0));
#204=SURFACE_STYLE_FILL_AREA(#310);
#205=ORIENTED_EDGE('',*,*,#293,.F.);
#206=ORIENTED_EDGE('',*,*,#311,.F.);
#207=ORIENTED_EDGE('',*,*,#312,.F.);
#208=ORIENTED_EDGE('',*,*,#302,.T.);
#209=CARTESIAN_POINT('',(18.05,7.105427357601E-014,86.0));
#210=DIRECTION('',(0.0,0.0,1.0));
#211=DIRECTION('',(1.0,-0.0,0.0));
#212=SURFACE_STYLE_FILL_AREA(#313);
#213=ORIENTED_EDGE('',*,*,#312,.T.);
#214=ORIENTED_EDGE('',*,*,#314,.T.);
#215=ORIENTED_EDGE('',*,*,#315,.T.);
#216=ORIENTED_EDGE('',*,*,#303,.F.);
#217=CARTESIAN_POINT('',(0.0,7.105427357601E-014,83.0));
#218=DIRECTION('',(1.83667601732676E-048,1.0,1.49975978266185E-032));
#219=DIRECTION('',(1.0,0.0,-1.22464679914735E-016));
#220=SURFACE_STYLE_FILL_AREA(#316);
#221=ORIENTED_EDGE('',*,*,#317,.T.);
#222=ORIENTED_EDGE('',*,*,#304,.F.);
#223=ORIENTED_EDGE('',*,*,#315,.F.);
#224=ORIENTED_EDGE('',*,*,#318,.T.);
#225=CARTESIAN_POINT('',(0.0,7.105427357601E-014,90.0));
#226=DIRECTION('',(0.0,0.0,1.0));
#227=DIRECTION('',(1.0,-0.0,0.0));
#228=SURFACE_STYLE_FILL_AREA(#319);
#229=ORIENTED_EDGE('',*,*,#320,.F.);
#230=ORIENTED_EDGE('',*,*,#305,.F.);
#231=ORIENTED_EDGE('',*,*,#317,.F.);
#232=ORIENTED_EDGE('',*,*,#321,.F.);
#233=CARTESIAN_POINT('',(-1.67309459208641E-015,-13.6618541219499,90.0));
#234=DIRECTION('',(-8.65956056235493E-017,-0.707106781186548,0.707106781186548));
#235=DIRECTION('',(-1.0,1.22464679914735E-016,0.0));
#236=SURFACE_STYLE_FILL_AREA(#322);
#237=ORIENTED_EDGE('',*,*,#323,.F.);
#238=ORIENTED_EDGE('',*,*,#306,.T.);
#239=ORIENTED_EDGE('',*,*,#320,.T.);
#240=ORIENTED_EDGE('',*,*,#324,.F.);
#241=CARTESIAN_POINT('',(-1.10218211923262E-014,-90.0,1.998402056649E-014));
#242=DIRECTION('',(1.83667601732676E-048,1.0,1.49975978266185E-032));
#243=DIRECTION('',(1.0,0.0,-1.22464679914735E-016));
#244=SURFACE_STYLE_FILL_AREA(#325);
#245=ORIENTED_EDGE('',*,*,#326,.T.);
#246=ORIENTED_EDGE('',*,*,#307,.T.);
#247=ORIENTED_EDGE('',*,*,#323,.T.);
#248=ORIENTED_EDGE('',*,*,#327,.F.);
#249=CARTESIAN_POINT('',(-1.0164568432923E-014,-83.0,1.842970833201E-014));
#250=DIRECTION('',(0.0,0.0,1.0));
#251=DIRECTION('',(1.0,-0.0,0.0));
#252=SURFACE_STYLE_FILL_AREA(#328);
#253=ORIENTED_EDGE('',*,*,#291,.F.);
#254=ORIENTED_EDGE('',*,*,#308,.F.);
#255=ORIENTED_EDGE('',*,*,#326,.F.);
#256=ORIENTED_EDGE('',*,*,#329,.T.);
#257=CARTESIAN_POINT('',(18.05,-86.0,1.909584214679E-014));
#258=DIRECTION('',(1.83667601732676E-048,1.0,1.49975978266185E-032));
#259=DIRECTION('',(1.0,0.0,-1.22464679914735E-016));
#260=SURFACE_STYLE_FILL_AREA(#330);
#261=ORIENTED_EDGE('',*,*,#292,.T.);
#262=ORIENTED_EDGE('',*,*,#329,.F.);
#263=ORIENTED_EDGE('',*,*,#327,.T.);
#264=ORIENTED_EDGE('',*,*,#324,.T.);
#265=ORIENTED_EDGE('',*,*,#321,.T.);
#266=ORIENTED_EDGE('',*,*,#318,.F.);
#267=ORIENTED_EDGE('',*,*,#314,.F.);
#268=ORIENTED_EDGE('',*,*,#311,.T.);
#269=CARTESIAN_POINT('',(-21.5,7.105427357601E-014,0.0));
#270=DIRECTION('',(-1.0,1.22464679914735E-016,0.0));
#271=DIRECTION('',(0.0,0.0,1.0));
#272=SURFACE_STYLE_FILL_AREA(#331);
#273=ORIENTED_EDGE('',*,*,#309,.F.);
#274=ORIENTED_EDGE('',*,*,#299,.T.);
#275=ORIENTED_EDGE('',*,*,#332,.F.);
#276=ORIENTED_EDGE('',*,*,#295,.F.);
#277=CARTESIAN_POINT('',(21.5,-9.49999999999993,88.3));
#278=DIRECTION('',(1.83667601732676E-048,1.0,1.49975978266185E-032));
#279=DIRECTION('',(1.0,0.0,-1.22464679914735E-016));
#280=SURFACE_STYLE_FILL_AREA(#333);
#281=ORIENTED_EDGE('',*,*,#296,.T.);
#282=ORIENTED_EDGE('',*,*,#332,.T.);
#283=ORIENTED_EDGE('',*,*,#298,.T.);
#284=CARTESIAN_POINT('',(19.0,7.105427357601E-014,0.0));
#285=DIRECTION('',(-1.0,1.22464679914735E-016,0.0));
#286=DIRECTION('',(0.0,0.0,1.0));
#287=SURFACE_STYLE_FILL_AREA(#334);
#288=FILL_AREA_STYLE('',(#335));
#289=EDGE_CURVE('',#336,#337,#338,.T.);
#290=EDGE_CURVE('',#336,#339,#340,.T.);
#291=EDGE_CURVE('',#339,#341,#342,.T.);
#292=EDGE_CURVE('',#343,#341,#344,.T.);
#293=EDGE_CURVE('',#343,#345,#346,.T.);
#294=EDGE_CURVE('',#347,#345,#348,.T.);
#295=EDGE_CURVE('',#347,#349,#350,.T.);
#296=EDGE_CURVE('',#337,#349,#351,.T.);
#297=FILL_AREA_STYLE('',(#352));
#298=EDGE_CURVE('',#353,#337,#354,.T.);
#299=EDGE_CURVE('',#355,#353,#356,.T.);
#300=EDGE_CURVE('',#336,#355,#357,.T.);
#301=FILL_AREA_STYLE('',(#358));
#302=EDGE_CURVE('',#359,#345,#360,.T.);
#303=EDGE_CURVE('',#359,#361,#362,.T.);
#304=EDGE_CURVE('',#361,#363,#364,.T.);
#305=EDGE_CURVE('',#363,#365,#366,.T.);
#306=EDGE_CURVE('',#367,#365,#368,.T.);
#307=EDGE_CURVE('',#369,#367,#370,.T.);
#308=EDGE_CURVE('',#369,#339,#371,.T.);
#309=EDGE_CURVE('',#355,#347,#372,.T.);
#310=FILL_AREA_STYLE('',(#373));
#311=EDGE_CURVE('',#374,#343,#375,.T.);
#312=EDGE_CURVE('',#359,#374,#376,.T.);
#313=FILL_AREA_STYLE('',(#377));
#314=EDGE_CURVE('',#374,#378,#379,.T.);
#315=EDGE_CURVE('',#378,#361,#380,.T.);
#316=FILL_AREA_STYLE('',(#381));
#317=EDGE_CURVE('',#382,#363,#383,.T.);
#318=EDGE_CURVE('',#378,#382,#384,.T.);
#319=FILL_AREA_STYLE('',(#385));
#320=EDGE_CURVE('',#365,#386,#387,.T.);
#321=EDGE_CURVE('',#386,#382,#388,.T.);
#322=FILL_AREA_STYLE('',(#389));
#323=EDGE_CURVE('',#367,#390,#391,.T.);
#324=EDGE_CURVE('',#390,#386,#392,.T.);
#325=FILL_AREA_STYLE('',(#393));
#326=EDGE_CURVE('',#394,#369,#395,.T.);
#327=EDGE_CURVE('',#394,#390,#396,.T.);
#328=FILL_AREA_STYLE('',(#397));
#329=EDGE_CURVE('',#394,#341,#398,.T.);
#330=FILL_AREA_STYLE('',(#399));
#331=FILL_AREA_STYLE('',(#400));
#332=EDGE_CURVE('',#349,#353,#401,.T.);
#333=FILL_AREA_STYLE('',(#402));
#334=FILL_AREA_STYLE('',(#403));
#335=FILL_AREA_STYLE_COLOUR('',#404);
#336=VERTEX_POINT('',#405);
#337=VERTEX_POINT('',#406);
#338=LINE('',#407,#408);
#339=VERTEX_POINT('',#409);
#340=LINE('',#410,#411);
#341=VERTEX_POINT('',#412);
#342=LINE('',#413,#414);
#343=VERTEX_POINT('',#415);
#344=LINE('',#416,#417);
#345=VERTEX_POINT('',#418);
#346=LINE('',#419,#420);
#347=VERTEX_POINT('',#421);
#348=LINE('',#422,#423);
#349=VERTEX_POINT('',#424);
#350=LINE('',#425,#426);
#351=LINE('',#427,#428);
#352=FILL_AREA_STYLE_COLOUR('',#429);
#353=VERTEX_POINT('',#430);
#354=LINE('',#431,#432);
#355=VERTEX_POINT('',#433);
#356=LINE('',#434,#435);
#357=LINE('',#436,#437);
#358=FILL_AREA_STYLE_COLOUR('',#438);
#359=VERTEX_POINT('',#439);
#360=LINE('',#440,#441);
#361=VERTEX_POINT('',#442);
#362=LINE('',#443,#444);
#363=VERTEX_POINT('',#445);
#364=LINE('',#446,#447);
#365=VERTEX_POINT('',#448);
#366=LINE('',#449,#450);
#367=VERTEX_POINT('',#451);
#368=LINE('',#452,#453);
#369=VERTEX_POINT('',#454);
#370=LINE('',#455,#456);
#371=LINE('',#457,#458);
#372=LINE('',#459,#460);
#373=FILL_AREA_STYLE_COLOUR('',#461);
#374=VERTEX_POINT('',#462);
#375=LINE('',#463,#464);
#376=LINE('',#465,#466);
#377=FILL_AREA_STYLE_COLOUR('',#467);
#378=VERTEX_POINT('',#468);
#379=LINE('',#469,#470);
#380=LINE('',#471,#472);
#381=FILL_AREA_STYLE_COLOUR('',#473);
#382=VERTEX_POINT('',#474);
#383=LINE('',#475,#476);
#384=LINE('',#477,#478);
#385=FILL_AREA_STYLE_COLOUR('',#479);
#386=VERTEX_POINT('',#480);
#387=LINE('',#481,#482);
#388=LINE('',#483,#484);
#389=FILL_AREA_STYLE_COLOUR('',#485);
#390=VERTEX_POINT('',#486);
#391=LINE('',#487,#488);
#392=LINE('',#489,#490);
#393=FILL_AREA_STYLE_COLOUR('',#491);
#394=VERTEX_POINT('',#492);
#395=LINE('',#493,#494);
#396=LINE('',#495,#496);
#397=FILL_AREA_STYLE_COLOUR('',#497);
#398=LINE('',#498,#499);
#399=FILL_AREA_STYLE_COLOUR('',#500);
#400=FILL_AREA_STYLE_COLOUR('',#501);
#401=LINE('',#502,#503);
#402=FILL_AREA_STYLE_COLOUR('',#504);
#403=FILL_AREA_STYLE_COLOUR('',#505);
#404=COLOUR_RGB('',0.61176472902298,0.61176472902298,0.650980412960052);
#405=CARTESIAN_POINT('',(21.5,-84.96946596652,9.5));
#406=CARTESIAN_POINT('',(19.0,-84.96946596652,9.5));
#407=CARTESIAN_POINT('',(21.5,-84.96946596652,9.5));
#408=VECTOR('',#506,2.5);
#409=CARTESIAN_POINT('',(21.5,-86.0,8.469465966523));
#410=CARTESIAN_POINT('',(21.5,-84.96946596652,9.5));
#411=VECTOR('',#507,1.45739520663232);
#412=CARTESIAN_POINT('',(-21.5,-86.0,8.469465966523));
#413=CARTESIAN_POINT('',(21.5,-86.0,8.469465966523));
#414=VECTOR('',#508,43.0);
#415=CARTESIAN_POINT('',(-21.5,-8.46946596652292,86.0));
#416=CARTESIAN_POINT('',(-21.5,-8.46946596652292,86.0));
#417=VECTOR('',#509,109.644732728172);
#418=CARTESIAN_POINT('',(21.5,-8.46946596652292,86.0));
#419=CARTESIAN_POINT('',(-21.5,-8.46946596652292,86.0));
#420=VECTOR('',#510,43.0);
#421=CARTESIAN_POINT('',(21.5,-9.49999999999993,84.96946596652));
#422=CARTESIAN_POINT('',(21.5,-9.49999999999993,84.96946596652));
#423=VECTOR('',#511,1.45739520663235);
#424=CARTESIAN_POINT('',(19.0,-9.49999999999993,84.96946596652));
#425=CARTESIAN_POINT('',(21.5,-9.49999999999993,84.96946596652));
#426=VECTOR('',#512,2.5);
#427=CARTESIAN_POINT('',(19.0,-84.96946596652,9.5));
#428=VECTOR('',#513,106.729942314907);
#429=COLOUR_RGB('',0.61176472902298,0.61176472902298,0.650980412960052);
#430=CARTESIAN_POINT('',(19.0,-9.49999999999993,9.5));
#431=CARTESIAN_POINT('',(19.0,-9.49999999999993,9.5));
#432=VECTOR('',#514,75.4694659665201);
#433=CARTESIAN_POINT('',(21.5,-9.49999999999993,9.5));
#434=CARTESIAN_POINT('',(21.5,-9.49999999999993,9.5));
#435=VECTOR('',#515,2.5);
#436=CARTESIAN_POINT('',(21.5,-84.96946596652,9.5));
#437=VECTOR('',#516,75.4694659665201);
#438=COLOUR_RGB('',0.61176472902298,0.61176472902298,0.650980412960052);
#439=CARTESIAN_POINT('',(21.5,7.105427357601E-014,86.0));
#440=CARTESIAN_POINT('',(21.5,7.105427357601E-014,86.0));
#441=VECTOR('',#517,8.46946596652299);
#442=CARTESIAN_POINT('',(21.5,7.105427357601E-014,90.0));
#443=CARTESIAN_POINT('',(21.5,7.105427357601E-014,86.0));
#444=VECTOR('',#518,4.0);
#445=CARTESIAN_POINT('',(21.5,-13.6618541219499,90.0));
#446=CARTESIAN_POINT('',(21.5,7.105427357601E-014,90.0));
#447=VECTOR('',#519,13.66185412195);
#448=CARTESIAN_POINT('',(21.5,-90.0,13.66185412195));
#449=CARTESIAN_POINT('',(21.5,-13.6618541219499,90.0));
#450=VECTOR('',#520,107.958441227154);
#451=CARTESIAN_POINT('',(21.5,-90.0,1.998402056649E-014));
#452=CARTESIAN_POINT('',(21.5,-90.0,1.998402056649E-014));
#453=VECTOR('',#521,13.66185412195);
#454=CARTESIAN_POINT('',(21.5,-86.0,1.909584214679E-014));
#455=CARTESIAN_POINT('',(21.5,-86.0,1.909584214679E-014));
#456=VECTOR('',#522,4.0);
#457=CARTESIAN_POINT('',(21.5,-86.0,1.909584214679E-014));
#458=VECTOR('',#523,8.46946596652298);
#459=CARTESIAN_POINT('',(21.5,-9.49999999999993,9.5));
#460=VECTOR('',#524,75.46946596652);
#461=COLOUR_RGB('',0.61176472902298,0.61176472902298,0.650980412960052);
#462=CARTESIAN_POINT('',(-21.5,7.105427357601E-014,86.0));
#463=CARTESIAN_POINT('',(-21.5,7.105427357601E-014,86.0));
#464=VECTOR('',#525,8.46946596652299);
#465=CARTESIAN_POINT('',(21.5,7.105427357601E-014,86.0));
#466=VECTOR('',#526,43.0);
#467=COLOUR_RGB('',0.61176472902298,0.61176472902298,0.650980412960052);
#468=CARTESIAN_POINT('',(-21.5,7.105427357601E-014,90.0));
#469=CARTESIAN_POINT('',(-21.5,7.105427357601E-014,86.0));
#470=VECTOR('',#527,4.0);
#471=CARTESIAN_POINT('',(-21.5,7.105427357601E-014,90.0));
#472=VECTOR('',#528,43.0);
#473=COLOUR_RGB('',0.61176472902298,0.61176472902298,0.650980412960052);
#474=CARTESIAN_POINT('',(-21.5,-13.6618541219499,90.0));
#475=CARTESIAN_POINT('',(-21.5,-13.6618541219499,90.0));
#476=VECTOR('',#529,43.0);
#477=CARTESIAN_POINT('',(-21.5,7.105427357601E-014,90.0));
#478=VECTOR('',#530,13.66185412195);
#479=COLOUR_RGB('',0.61176472902298,0.61176472902298,0.650980412960052);
#480=CARTESIAN_POINT('',(-21.5,-90.0,13.66185412195));
#481=CARTESIAN_POINT('',(21.5,-90.0,13.66185412195));
#482=VECTOR('',#531,43.0);
#483=CARTESIAN_POINT('',(-21.5,-90.0,13.66185412195));
#484=VECTOR('',#532,107.958441227154);
#485=COLOUR_RGB('',0.61176472902298,0.61176472902298,0.650980412960052);
#486=CARTESIAN_POINT('',(-21.5,-90.0,1.998402056649E-014));
#487=CARTESIAN_POINT('',(21.5,-90.0,1.998402056649E-014));
#488=VECTOR('',#533,43.0);
#489=CARTESIAN_POINT('',(-21.5,-90.0,1.998402056649E-014));
#490=VECTOR('',#534,13.66185412195);
#491=COLOUR_RGB('',0.61176472902298,0.61176472902298,0.650980412960052);
#492=CARTESIAN_POINT('',(-21.5,-86.0,1.909584214679E-014));
#493=CARTESIAN_POINT('',(-21.5,-86.0,1.909584214679E-014));
#494=VECTOR('',#535,43.0);
#495=CARTESIAN_POINT('',(-21.5,-86.0,1.909584214679E-014));
#496=VECTOR('',#536,4.0);
#497=COLOUR_RGB('',0.61176472902298,0.61176472902298,0.650980412960052);
#498=CARTESIAN_POINT('',(-21.5,-86.0,1.909584214679E-014));
#499=VECTOR('',#537,8.46946596652298);
#500=COLOUR_RGB('',0.61176472902298,0.61176472902298,0.650980412960052);
#501=COLOUR_RGB('',0.61176472902298,0.61176472902298,0.650980412960052);
#502=CARTESIAN_POINT('',(19.0,-9.49999999999993,84.96946596652));
#503=VECTOR('',#538,75.46946596652);
#504=COLOUR_RGB('',0.61176472902298,0.61176472902298,0.650980412960052);
#505=COLOUR_RGB('',0.61176472902298,0.61176472902298,0.650980412960052);
#506=DIRECTION('',(-1.0,1.22464679914735E-016,0.0));
#507=DIRECTION('',(-8.65956056235432E-017,-0.707106781186498,-0.707106781186598));
#508=DIRECTION('',(-1.0,1.22464679914735E-016,0.0));
#509=DIRECTION('',(-8.65956056235492E-017,-0.707106781186548,-0.707106781186548));
#510=DIRECTION('',(1.0,-1.22464679914735E-016,0.0));
#511=DIRECTION('',(8.65956056235493E-017,0.707106781186548,0.707106781186548));
#512=DIRECTION('',(-1.0,1.22464679914735E-016,0.0));
#513=DIRECTION('',(8.65956056235494E-017,0.707106781186548,0.707106781186548));
#514=DIRECTION('',(-1.22464679914735E-016,-1.0,0.0));
#515=DIRECTION('',(-1.0,1.22464679914735E-016,0.0));
#516=DIRECTION('',(1.22464679914735E-016,1.0,0.0));
#517=DIRECTION('',(-1.22464679914735E-016,-1.0,0.0));
#518=DIRECTION('',(0.0,0.0,1.0));
#519=DIRECTION('',(-1.22464679914735E-016,-1.0,0.0));
#520=DIRECTION('',(-8.65956056235492E-017,-0.707106781186548,-0.707106781186548));
#521=DIRECTION('',(0.0,0.0,1.0));
#522=DIRECTION('',(-1.22464679914735E-016,-1.0,0.0));
#523=DIRECTION('',(0.0,0.0,1.0));
#524=DIRECTION('',(0.0,0.0,1.0));
#525=DIRECTION('',(-1.22464679914735E-016,-1.0,0.0));
#526=DIRECTION('',(-1.0,1.22464679914735E-016,0.0));
#527=DIRECTION('',(0.0,0.0,1.0));
#528=DIRECTION('',(1.0,-1.22464679914735E-016,0.0));
#529=DIRECTION('',(1.0,-1.22464679914735E-016,0.0));
#530=DIRECTION('',(-1.22464679914735E-016,-1.0,0.0));
#531=DIRECTION('',(-1.0,1.22464679914735E-016,0.0));
#532=DIRECTION('',(8.65956056235492E-017,0.707106781186548,0.707106781186548));
#533=DIRECTION('',(-1.0,1.22464679914735E-016,0.0));
#534=DIRECTION('',(0.0,0.0,1.0));
#535=DIRECTION('',(1.0,-1.22464679914735E-016,0.0));
#536=DIRECTION('',(-1.22464679914735E-016,-1.0,0.0));
#537=DIRECTION('',(0.0,0.0,1.0));
#538=DIRECTION('',(0.0,0.0,-1.0));
ENDSEC;
END-ISO-10303-21;
