ISO-10303-21;
HEADER;
FILE_DESCRIPTION(('STEP AP214'),'1');
FILE_NAME('cctmp_70547BEE-717B-415D-A2DD-4F61FE1A2728_2020_1_20_8_38_34_116..stp','2020-01-20T07:38:34',('Bosch Rexroth AG'),('CADClick - www.CADClick.com'),'Spatial InterOp 3D',' ','unknown authorization - (Healing Option Enabled)');
FILE_SCHEMA(('AUTOMOTIVE_DESIGN'));
ENDSEC;
DATA;
#1=MECHANICAL_DESIGN_GEOMETRIC_PRESENTATION_REPRESENTATION(' ',(#10,#11,#12,#13,#14,#15,#16,#17,#18,#19,#20),#6);
#2=PRODUCT_DEFINITION_CONTEXT('',#21,'design');
#3=APPLICATION_PROTOCOL_DEFINITION('INTERNATIONAL STANDARD','automotive_design',1994,#21);
#4=PRODUCT_CATEGORY_RELATIONSHIP('NONE','NONE',#22,#23);
#5=SHAPE_DEFINITION_REPRESENTATION(#24,#25);
#6= (GEOMETRIC_REPRESENTATION_CONTEXT(3)GLOBAL_UNCERTAINTY_ASSIGNED_CONTEXT((#28))GLOBAL_UNIT_ASSIGNED_CONTEXT((#30,#31,#32))REPRESENTATION_CONTEXT('NONE','WORKSPACE'));
#10=STYLED_ITEM('',(#34),#35);
#11=STYLED_ITEM('',(#36),#37);
#12=STYLED_ITEM('',(#38),#39);
#13=STYLED_ITEM('',(#40),#41);
#14=STYLED_ITEM('',(#42),#43);
#15=STYLED_ITEM('',(#44),#45);
#16=STYLED_ITEM('',(#46),#47);
#17=STYLED_ITEM('',(#48),#49);
#18=STYLED_ITEM('',(#50),#51);
#19=STYLED_ITEM('',(#52),#53);
#20=STYLED_ITEM('',(#54),#55);
#21=APPLICATION_CONTEXT(' ');
#22=PRODUCT_CATEGORY('part','NONE');
#23=PRODUCT_RELATED_PRODUCT_CATEGORY('detail',' ',(#56));
#24=PRODUCT_DEFINITION_SHAPE('NONE','NONE',#57);
#25=ADVANCED_BREP_SHAPE_REPRESENTATION('2020_01_20__08-38-34-116',(#55,#58),#6);
#28=UNCERTAINTY_MEASURE_WITH_UNIT(LENGTH_MEASURE(1.0E-006),#30,'','');
#30= (CONVERSION_BASED_UNIT('MILLIMETRE',#61)LENGTH_UNIT()NAMED_UNIT(#64));
#31= (NAMED_UNIT(#66)PLANE_ANGLE_UNIT()SI_UNIT($,.RADIAN.));
#32= (NAMED_UNIT(#66)SOLID_ANGLE_UNIT()SI_UNIT($,.STERADIAN.));
#34=PRESENTATION_STYLE_ASSIGNMENT((#72));
#35=ADVANCED_FACE('',(#73),#74,.T.);
#36=PRESENTATION_STYLE_ASSIGNMENT((#75));
#37=ADVANCED_FACE('',(#76),#77,.T.);
#38=PRESENTATION_STYLE_ASSIGNMENT((#78));
#39=ADVANCED_FACE('',(#79),#80,.F.);
#40=PRESENTATION_STYLE_ASSIGNMENT((#81));
#41=ADVANCED_FACE('',(#82),#83,.F.);
#42=PRESENTATION_STYLE_ASSIGNMENT((#84));
#43=ADVANCED_FACE('',(#85),#86,.F.);
#44=PRESENTATION_STYLE_ASSIGNMENT((#87));
#45=ADVANCED_FACE('',(#88),#89,.T.);
#46=PRESENTATION_STYLE_ASSIGNMENT((#90));
#47=ADVANCED_FACE('',(#91),#92,.F.);
#48=PRESENTATION_STYLE_ASSIGNMENT((#93));
#49=ADVANCED_FACE('',(#94),#95,.F.);
#50=PRESENTATION_STYLE_ASSIGNMENT((#96));
#51=ADVANCED_FACE('',(#97),#98,.T.);
#52=PRESENTATION_STYLE_ASSIGNMENT((#99));
#53=ADVANCED_FACE('',(#100),#101,.T.);
#54=PRESENTATION_STYLE_ASSIGNMENT((#102));
#55=MANIFOLD_SOLID_BREP('2020_01_20__08-38-34-116',#103);
#56=PRODUCT('2020_01_20__08-38-34-116','','PART--DESC',(#104));
#57=PRODUCT_DEFINITION('','NONE',#105,#2);
#58=AXIS2_PLACEMENT_3D('',#106,#107,#108);
#61=LENGTH_MEASURE_WITH_UNIT(LENGTH_MEASURE(1.0),#109);
#64=DIMENSIONAL_EXPONENTS(1.0,0.0,0.0,0.0,0.0,0.0,0.0);
#66=DIMENSIONAL_EXPONENTS(0.0,0.0,0.0,0.0,0.0,0.0,0.0);
#72=SURFACE_STYLE_USAGE(.BOTH.,#110);
#73=FACE_OUTER_BOUND('',#111,.T.);
#74=PLANE('',#112);
#75=SURFACE_STYLE_USAGE(.BOTH.,#113);
#76=FACE_OUTER_BOUND('',#114,.T.);
#77=PLANE('',#115);
#78=SURFACE_STYLE_USAGE(.BOTH.,#116);
#79=FACE_OUTER_BOUND('',#117,.T.);
#80=PLANE('',#118);
#81=SURFACE_STYLE_USAGE(.BOTH.,#119);
#82=FACE_OUTER_BOUND('',#120,.T.);
#83=PLANE('',#121);
#84=SURFACE_STYLE_USAGE(.BOTH.,#122);
#85=FACE_OUTER_BOUND('',#123,.T.);
#86=PLANE('',#124);
#87=SURFACE_STYLE_USAGE(.BOTH.,#125);
#88=FACE_OUTER_BOUND('',#126,.T.);
#89=PLANE('',#127);
#90=SURFACE_STYLE_USAGE(.BOTH.,#128);
#91=FACE_OUTER_BOUND('',#129,.T.);
#92=PLANE('',#130);
#93=SURFACE_STYLE_USAGE(.BOTH.,#131);
#94=FACE_OUTER_BOUND('',#132,.T.);
#95=PLANE('',#133);
#96=SURFACE_STYLE_USAGE(.BOTH.,#134);
#97=FACE_OUTER_BOUND('',#135,.T.);
#98=PLANE('',#136);
#99=SURFACE_STYLE_USAGE(.BOTH.,#137);
#100=FACE_OUTER_BOUND('',#138,.T.);
#101=PLANE('',#139);
#102=SURFACE_STYLE_USAGE(.BOTH.,#140);
#103=CLOSED_SHELL('',(#35,#37,#39,#41,#43,#45,#47,#49,#51,#53));
#104=PRODUCT_CONTEXT('',#21,'mechanical');
#105=PRODUCT_DEFINITION_FORMATION_WITH_SPECIFIED_SOURCE(' ','NONE',#56,.NOT_KNOWN.);
#106=CARTESIAN_POINT('',(0.0,0.0,0.0));
#107=DIRECTION('',(0.0,0.0,1.0));
#108=DIRECTION('',(1.0,0.0,0.0));
#109= (NAMED_UNIT(#64)LENGTH_UNIT()SI_UNIT(.MILLI.,.METRE.));
#110=SURFACE_SIDE_STYLE('',(#142));
#111=EDGE_LOOP('',(#143,#144,#145,#146));
#112=AXIS2_PLACEMENT_3D('',#147,#148,#149);
#113=SURFACE_SIDE_STYLE('',(#150));
#114=EDGE_LOOP('',(#151,#152,#153,#154));
#115=AXIS2_PLACEMENT_3D('',#155,#156,#157);
#116=SURFACE_SIDE_STYLE('',(#158));
#117=EDGE_LOOP('',(#159,#160,#161,#162));
#118=AXIS2_PLACEMENT_3D('',#163,#164,#165);
#119=SURFACE_SIDE_STYLE('',(#166));
#120=EDGE_LOOP('',(#167,#168,#169,#170,#171,#172,#173,#174));
#121=AXIS2_PLACEMENT_3D('',#175,#176,#177);
#122=SURFACE_SIDE_STYLE('',(#178));
#123=EDGE_LOOP('',(#179,#180,#181,#182));
#124=AXIS2_PLACEMENT_3D('',#183,#184,#185);
#125=SURFACE_SIDE_STYLE('',(#186));
#126=EDGE_LOOP('',(#187,#188,#189,#190));
#127=AXIS2_PLACEMENT_3D('',#191,#192,#193);
#128=SURFACE_SIDE_STYLE('',(#194));
#129=EDGE_LOOP('',(#195,#196,#197,#198,#199,#200,#201,#202));
#130=AXIS2_PLACEMENT_3D('',#203,#204,#205);
#131=SURFACE_SIDE_STYLE('',(#206));
#132=EDGE_LOOP('',(#207,#208,#209,#210));
#133=AXIS2_PLACEMENT_3D('',#211,#212,#213);
#134=SURFACE_SIDE_STYLE('',(#214));
#135=EDGE_LOOP('',(#215,#216,#217,#218));
#136=AXIS2_PLACEMENT_3D('',#219,#220,#221);
#137=SURFACE_SIDE_STYLE('',(#222));
#138=EDGE_LOOP('',(#223,#224,#225,#226));
#139=AXIS2_PLACEMENT_3D('',#227,#228,#229);
#140=SURFACE_SIDE_STYLE('',(#230));
#142=SURFACE_STYLE_FILL_AREA(#231);
#143=ORIENTED_EDGE('',*,*,#232,.T.);
#144=ORIENTED_EDGE('',*,*,#233,.F.);
#145=ORIENTED_EDGE('',*,*,#234,.T.);
#146=ORIENTED_EDGE('',*,*,#235,.F.);
#147=CARTESIAN_POINT('',(-3.03084619682433E-015,-24.7487373415299,24.74873734153));
#148=DIRECTION('',(8.65956056235493E-017,0.707106781186548,-0.707106781186548));
#149=DIRECTION('',(-1.0,0.0,-1.22464679914735E-016));
#150=SURFACE_STYLE_FILL_AREA(#236);
#151=ORIENTED_EDGE('',*,*,#237,.F.);
#152=ORIENTED_EDGE('',*,*,#238,.F.);
#153=ORIENTED_EDGE('',*,*,#232,.F.);
#154=ORIENTED_EDGE('',*,*,#239,.T.);
#155=CARTESIAN_POINT('',(-17.9,5.6843418860808E-014,41.0));
#156=DIRECTION('',(0.0,0.0,-1.0));
#157=DIRECTION('',(0.0,-1.0,0.0));
#158=SURFACE_STYLE_FILL_AREA(#240);
#159=ORIENTED_EDGE('',*,*,#237,.T.);
#160=ORIENTED_EDGE('',*,*,#241,.T.);
#161=ORIENTED_EDGE('',*,*,#242,.T.);
#162=ORIENTED_EDGE('',*,*,#243,.F.);
#163=CARTESIAN_POINT('',(0.0,5.6843418860808E-014,38.0));
#164=DIRECTION('',(-1.22464679914735E-016,-1.0,0.0));
#165=DIRECTION('',(-1.0,1.22464679914735E-016,0.0));
#166=SURFACE_STYLE_FILL_AREA(#244);
#167=ORIENTED_EDGE('',*,*,#233,.T.);
#168=ORIENTED_EDGE('',*,*,#238,.T.);
#169=ORIENTED_EDGE('',*,*,#243,.T.);
#170=ORIENTED_EDGE('',*,*,#245,.T.);
#171=ORIENTED_EDGE('',*,*,#246,.T.);
#172=ORIENTED_EDGE('',*,*,#247,.F.);
#173=ORIENTED_EDGE('',*,*,#248,.F.);
#174=ORIENTED_EDGE('',*,*,#249,.F.);
#175=CARTESIAN_POINT('',(21.5,5.6843418860808E-014,0.0));
#176=DIRECTION('',(-1.0,1.22464679914735E-016,0.0));
#177=DIRECTION('',(0.0,0.0,1.0));
#178=SURFACE_STYLE_FILL_AREA(#250);
#179=ORIENTED_EDGE('',*,*,#251,.F.);
#180=ORIENTED_EDGE('',*,*,#252,.F.);
#181=ORIENTED_EDGE('',*,*,#234,.F.);
#182=ORIENTED_EDGE('',*,*,#249,.T.);
#183=CARTESIAN_POINT('',(-17.9,-41.0,0.0));
#184=DIRECTION('',(-1.22464679914735E-016,-1.0,0.0));
#185=DIRECTION('',(-1.0,1.22464679914735E-016,0.0));
#186=SURFACE_STYLE_FILL_AREA(#253);
#187=ORIENTED_EDGE('',*,*,#251,.T.);
#188=ORIENTED_EDGE('',*,*,#248,.T.);
#189=ORIENTED_EDGE('',*,*,#254,.T.);
#190=ORIENTED_EDGE('',*,*,#255,.F.);
#191=CARTESIAN_POINT('',(-4.65365783675994E-015,-38.0,0.0));
#192=DIRECTION('',(0.0,0.0,-1.0));
#193=DIRECTION('',(0.0,-1.0,0.0));
#194=SURFACE_STYLE_FILL_AREA(#256);
#195=ORIENTED_EDGE('',*,*,#241,.F.);
#196=ORIENTED_EDGE('',*,*,#239,.F.);
#197=ORIENTED_EDGE('',*,*,#235,.T.);
#198=ORIENTED_EDGE('',*,*,#252,.T.);
#199=ORIENTED_EDGE('',*,*,#255,.T.);
#200=ORIENTED_EDGE('',*,*,#257,.T.);
#201=ORIENTED_EDGE('',*,*,#258,.T.);
#202=ORIENTED_EDGE('',*,*,#259,.F.);
#203=CARTESIAN_POINT('',(-21.5,5.6843418860808E-014,0.0));
#204=DIRECTION('',(1.0,-1.22464679914735E-016,0.0));
#205=DIRECTION('',(0.0,0.0,1.0));
#206=SURFACE_STYLE_FILL_AREA(#260);
#207=ORIENTED_EDGE('',*,*,#242,.F.);
#208=ORIENTED_EDGE('',*,*,#259,.T.);
#209=ORIENTED_EDGE('',*,*,#261,.T.);
#210=ORIENTED_EDGE('',*,*,#245,.F.);
#211=CARTESIAN_POINT('',(0.0,5.6843418860808E-014,45.0));
#212=DIRECTION('',(0.0,0.0,-1.0));
#213=DIRECTION('',(0.0,-1.0,0.0));
#214=SURFACE_STYLE_FILL_AREA(#262);
#215=ORIENTED_EDGE('',*,*,#261,.F.);
#216=ORIENTED_EDGE('',*,*,#258,.F.);
#217=ORIENTED_EDGE('',*,*,#263,.F.);
#218=ORIENTED_EDGE('',*,*,#246,.F.);
#219=CARTESIAN_POINT('',(-5.51091059616309E-015,-45.0,14.39696961967));
#220=DIRECTION('',(-8.65956056235493E-017,-0.707106781186548,0.707106781186548));
#221=DIRECTION('',(-1.0,1.22464679914735E-016,0.0));
#222=SURFACE_STYLE_FILL_AREA(#264);
#223=ORIENTED_EDGE('',*,*,#263,.T.);
#224=ORIENTED_EDGE('',*,*,#257,.F.);
#225=ORIENTED_EDGE('',*,*,#254,.F.);
#226=ORIENTED_EDGE('',*,*,#247,.T.);
#227=CARTESIAN_POINT('',(-5.51091059616309E-015,-45.0,0.0));
#228=DIRECTION('',(-1.22464679914735E-016,-1.0,0.0));
#229=DIRECTION('',(-1.0,1.22464679914735E-016,0.0));
#230=SURFACE_STYLE_FILL_AREA(#265);
#231=FILL_AREA_STYLE('',(#266));
#232=EDGE_CURVE('',#267,#268,#269,.T.);
#233=EDGE_CURVE('',#270,#268,#271,.T.);
#234=EDGE_CURVE('',#270,#272,#273,.T.);
#235=EDGE_CURVE('',#267,#272,#274,.T.);
#236=FILL_AREA_STYLE('',(#275));
#237=EDGE_CURVE('',#276,#277,#278,.T.);
#238=EDGE_CURVE('',#268,#276,#279,.T.);
#239=EDGE_CURVE('',#267,#277,#280,.T.);
#240=FILL_AREA_STYLE('',(#281));
#241=EDGE_CURVE('',#277,#282,#283,.T.);
#242=EDGE_CURVE('',#282,#284,#285,.T.);
#243=EDGE_CURVE('',#276,#284,#286,.T.);
#244=FILL_AREA_STYLE('',(#287));
#245=EDGE_CURVE('',#284,#288,#289,.T.);
#246=EDGE_CURVE('',#288,#290,#291,.T.);
#247=EDGE_CURVE('',#292,#290,#293,.T.);
#248=EDGE_CURVE('',#294,#292,#295,.T.);
#249=EDGE_CURVE('',#270,#294,#296,.T.);
#250=FILL_AREA_STYLE('',(#297));
#251=EDGE_CURVE('',#298,#294,#299,.T.);
#252=EDGE_CURVE('',#272,#298,#300,.T.);
#253=FILL_AREA_STYLE('',(#301));
#254=EDGE_CURVE('',#292,#302,#303,.T.);
#255=EDGE_CURVE('',#298,#302,#304,.T.);
#256=FILL_AREA_STYLE('',(#305));
#257=EDGE_CURVE('',#302,#306,#307,.T.);
#258=EDGE_CURVE('',#306,#308,#309,.T.);
#259=EDGE_CURVE('',#282,#308,#310,.T.);
#260=FILL_AREA_STYLE('',(#311));
#261=EDGE_CURVE('',#308,#288,#312,.T.);
#262=FILL_AREA_STYLE('',(#313));
#263=EDGE_CURVE('',#290,#306,#314,.T.);
#264=FILL_AREA_STYLE('',(#315));
#265=FILL_AREA_STYLE('',(#316));
#266=FILL_AREA_STYLE_COLOUR('',#317);
#267=VERTEX_POINT('',#318);
#268=VERTEX_POINT('',#319);
#269=LINE('',#320,#321);
#270=VERTEX_POINT('',#322);
#271=LINE('',#323,#324);
#272=VERTEX_POINT('',#325);
#273=LINE('',#326,#327);
#274=LINE('',#328,#329);
#275=FILL_AREA_STYLE_COLOUR('',#330);
#276=VERTEX_POINT('',#331);
#277=VERTEX_POINT('',#332);
#278=LINE('',#333,#334);
#279=LINE('',#335,#336);
#280=LINE('',#337,#338);
#281=FILL_AREA_STYLE_COLOUR('',#339);
#282=VERTEX_POINT('',#340);
#283=LINE('',#341,#342);
#284=VERTEX_POINT('',#343);
#285=LINE('',#344,#345);
#286=LINE('',#346,#347);
#287=FILL_AREA_STYLE_COLOUR('',#348);
#288=VERTEX_POINT('',#349);
#289=LINE('',#350,#351);
#290=VERTEX_POINT('',#352);
#291=LINE('',#353,#354);
#292=VERTEX_POINT('',#355);
#293=LINE('',#356,#357);
#294=VERTEX_POINT('',#358);
#295=LINE('',#359,#360);
#296=LINE('',#361,#362);
#297=FILL_AREA_STYLE_COLOUR('',#363);
#298=VERTEX_POINT('',#364);
#299=LINE('',#365,#366);
#300=LINE('',#367,#368);
#301=FILL_AREA_STYLE_COLOUR('',#369);
#302=VERTEX_POINT('',#370);
#303=LINE('',#371,#372);
#304=LINE('',#373,#374);
#305=FILL_AREA_STYLE_COLOUR('',#375);
#306=VERTEX_POINT('',#376);
#307=LINE('',#377,#378);
#308=VERTEX_POINT('',#379);
#309=LINE('',#380,#381);
#310=LINE('',#382,#383);
#311=FILL_AREA_STYLE_COLOUR('',#384);
#312=LINE('',#385,#386);
#313=FILL_AREA_STYLE_COLOUR('',#387);
#314=LINE('',#388,#389);
#315=FILL_AREA_STYLE_COLOUR('',#390);
#316=FILL_AREA_STYLE_COLOUR('',#391);
#317=COLOUR_RGB('',0.0117647061124444,0.0196078438311815,0.0392156876623631);
#318=CARTESIAN_POINT('',(-21.5,-8.49747468305788,41.0));
#319=CARTESIAN_POINT('',(21.5,-8.49747468305788,41.0));
#320=CARTESIAN_POINT('',(-21.5,-8.49747468305788,41.0));
#321=VECTOR('',#392,43.0);
#322=CARTESIAN_POINT('',(21.5,-41.0,8.497474683058));
#323=CARTESIAN_POINT('',(21.5,-41.0,8.497474683058));
#324=VECTOR('',#393,45.9655121145943);
#325=CARTESIAN_POINT('',(-21.5,-41.0,8.497474683058));
#326=CARTESIAN_POINT('',(21.5,-41.0,8.497474683058));
#327=VECTOR('',#394,43.0);
#328=CARTESIAN_POINT('',(-21.5,-8.49747468305788,41.0));
#329=VECTOR('',#395,45.9655121145943);
#330=COLOUR_RGB('',0.0117647061124444,0.0196078438311815,0.0392156876623631);
#331=CARTESIAN_POINT('',(21.5,5.6843418860808E-014,41.0));
#332=CARTESIAN_POINT('',(-21.5,5.6843418860808E-014,41.0));
#333=CARTESIAN_POINT('',(21.5,5.6843418860808E-014,41.0));
#334=VECTOR('',#396,43.0);
#335=CARTESIAN_POINT('',(21.5,-8.49747468305788,41.0));
#336=VECTOR('',#397,8.49747468305793);
#337=CARTESIAN_POINT('',(-21.5,-8.49747468305788,41.0));
#338=VECTOR('',#398,8.49747468305793);
#339=COLOUR_RGB('',0.0117647061124444,0.0196078438311815,0.0392156876623631);
#340=CARTESIAN_POINT('',(-21.5,5.6843418860808E-014,45.0));
#341=CARTESIAN_POINT('',(-21.5,5.6843418860808E-014,41.0));
#342=VECTOR('',#399,3.99999999999999);
#343=CARTESIAN_POINT('',(21.5,5.6843418860808E-014,45.0));
#344=CARTESIAN_POINT('',(-21.5,5.6843418860808E-014,45.0));
#345=VECTOR('',#400,43.0);
#346=CARTESIAN_POINT('',(21.5,5.6843418860808E-014,41.0));
#347=VECTOR('',#401,3.99999999999999);
#348=COLOUR_RGB('',0.0117647061124444,0.0196078438311815,0.0392156876623631);
#349=CARTESIAN_POINT('',(21.5,-14.39696961967,45.0));
#350=CARTESIAN_POINT('',(21.5,5.6843418860808E-014,45.0));
#351=VECTOR('',#402,14.39696961967);
#352=CARTESIAN_POINT('',(21.5,-45.0,14.39696961967));
#353=CARTESIAN_POINT('',(21.5,-14.39696961967,45.0));
#354=VECTOR('',#403,43.2792206135786);
#355=CARTESIAN_POINT('',(21.5,-45.0,0.0));
#356=CARTESIAN_POINT('',(21.5,-45.0,0.0));
#357=VECTOR('',#404,14.39696961967);
#358=CARTESIAN_POINT('',(21.5,-41.0,0.0));
#359=CARTESIAN_POINT('',(21.5,-41.0,0.0));
#360=VECTOR('',#405,4.0);
#361=CARTESIAN_POINT('',(21.5,-41.0,8.497474683058));
#362=VECTOR('',#406,8.497474683058);
#363=COLOUR_RGB('',0.0117647061124444,0.0196078438311815,0.0392156876623631);
#364=CARTESIAN_POINT('',(-21.5,-41.0,0.0));
#365=CARTESIAN_POINT('',(-21.5,-41.0,0.0));
#366=VECTOR('',#407,43.0);
#367=CARTESIAN_POINT('',(-21.5,-41.0,8.497474683058));
#368=VECTOR('',#408,8.497474683058);
#369=COLOUR_RGB('',0.0117647061124444,0.0196078438311815,0.0392156876623631);
#370=CARTESIAN_POINT('',(-21.5,-45.0,0.0));
#371=CARTESIAN_POINT('',(21.5,-45.0,0.0));
#372=VECTOR('',#409,43.0);
#373=CARTESIAN_POINT('',(-21.5,-41.0,0.0));
#374=VECTOR('',#410,4.0);
#375=COLOUR_RGB('',0.0117647061124444,0.0196078438311815,0.0392156876623631);
#376=CARTESIAN_POINT('',(-21.5,-45.0,14.39696961967));
#377=CARTESIAN_POINT('',(-21.5,-45.0,0.0));
#378=VECTOR('',#411,14.39696961967);
#379=CARTESIAN_POINT('',(-21.5,-14.39696961967,45.0));
#380=CARTESIAN_POINT('',(-21.5,-45.0,14.39696961967));
#381=VECTOR('',#412,43.2792206135786);
#382=CARTESIAN_POINT('',(-21.5,5.6843418860808E-014,45.0));
#383=VECTOR('',#413,14.39696961967);
#384=COLOUR_RGB('',0.0117647061124444,0.0196078438311815,0.0392156876623631);
#385=CARTESIAN_POINT('',(-21.5,-14.39696961967,45.0));
#386=VECTOR('',#414,43.0);
#387=COLOUR_RGB('',0.0117647061124444,0.0196078438311815,0.0392156876623631);
#388=CARTESIAN_POINT('',(21.5,-45.0,14.39696961967));
#389=VECTOR('',#415,43.0);
#390=COLOUR_RGB('',0.0117647061124444,0.0196078438311815,0.0392156876623631);
#391=COLOUR_RGB('',0.0117647061124444,0.0196078438311815,0.0392156876623631);
#392=DIRECTION('',(1.0,-1.22464679914735E-016,0.0));
#393=DIRECTION('',(8.65956056235492E-017,0.707106781186548,0.707106781186548));
#394=DIRECTION('',(-1.0,1.22464679914735E-016,0.0));
#395=DIRECTION('',(-8.65956056235492E-017,-0.707106781186548,-0.707106781186548));
#396=DIRECTION('',(-1.0,1.22464679914735E-016,0.0));
#397=DIRECTION('',(1.22464679914735E-016,1.0,0.0));
#398=DIRECTION('',(1.22464679914735E-016,1.0,0.0));
#399=DIRECTION('',(0.0,0.0,1.0));
#400=DIRECTION('',(1.0,-1.22464679914735E-016,0.0));
#401=DIRECTION('',(0.0,0.0,1.0));
#402=DIRECTION('',(-1.22464679914735E-016,-1.0,0.0));
#403=DIRECTION('',(-8.65956056235492E-017,-0.707106781186547,-0.707106781186547));
#404=DIRECTION('',(0.0,0.0,1.0));
#405=DIRECTION('',(-1.22464679914735E-016,-1.0,0.0));
#406=DIRECTION('',(0.0,0.0,-1.0));
#407=DIRECTION('',(1.0,-1.22464679914735E-016,0.0));
#408=DIRECTION('',(0.0,0.0,-1.0));
#409=DIRECTION('',(-1.0,1.22464679914735E-016,0.0));
#410=DIRECTION('',(-1.22464679914735E-016,-1.0,0.0));
#411=DIRECTION('',(0.0,0.0,1.0));
#412=DIRECTION('',(8.65956056235492E-017,0.707106781186547,0.707106781186547));
#413=DIRECTION('',(-1.22464679914735E-016,-1.0,0.0));
#414=DIRECTION('',(1.0,-1.22464679914735E-016,0.0));
#415=DIRECTION('',(-1.0,1.22464679914735E-016,0.0));
ENDSEC;
END-ISO-10303-21;
