ISO-10303-21;
HEADER;
FILE_DESCRIPTION(('STEP AP214'),'1');
FILE_NAME('cctmp_B61AE831-A202-447D-BECD-E1B44326E73A_2020_1_20_8_31_31_460..stp','2020-01-20T07:31:31',('Bosch Rexroth AG'),('CADClick - www.CADClick.com'),'Spatial InterOp 3D',' ','unknown authorization - (Healing Option Enabled)');
FILE_SCHEMA(('AUTOMOTIVE_DESIGN'));
ENDSEC;
DATA;
#1=MECHANICAL_DESIGN_GEOMETRIC_PRESENTATION_REPRESENTATION(' ',(#10,#11,#12,#13,#14,#15,#16,#17,#18,#19,#20,#21,#22,#23,#24),#6);
#2=PRODUCT_DEFINITION_CONTEXT('',#25,'design');
#3=APPLICATION_PROTOCOL_DEFINITION('INTERNATIONAL STANDARD','automotive_design',1994,#25);
#4=PRODUCT_CATEGORY_RELATIONSHIP('NONE','NONE',#26,#27);
#5=SHAPE_DEFINITION_REPRESENTATION(#28,#29);
#6= (GEOMETRIC_REPRESENTATION_CONTEXT(3)GLOBAL_UNCERTAINTY_ASSIGNED_CONTEXT((#32))GLOBAL_UNIT_ASSIGNED_CONTEXT((#34,#35,#36))REPRESENTATION_CONTEXT('NONE','WORKSPACE'));
#10=STYLED_ITEM('',(#38),#39);
#11=STYLED_ITEM('',(#40),#41);
#12=STYLED_ITEM('',(#42),#43);
#13=STYLED_ITEM('',(#44),#45);
#14=STYLED_ITEM('',(#46),#47);
#15=STYLED_ITEM('',(#48),#49);
#16=STYLED_ITEM('',(#50),#51);
#17=STYLED_ITEM('',(#52),#53);
#18=STYLED_ITEM('',(#54),#55);
#19=STYLED_ITEM('',(#56),#57);
#20=STYLED_ITEM('',(#58),#59);
#21=STYLED_ITEM('',(#60),#61);
#22=STYLED_ITEM('',(#62),#63);
#23=STYLED_ITEM('',(#64),#65);
#24=STYLED_ITEM('',(#66),#67);
#25=APPLICATION_CONTEXT(' ');
#26=PRODUCT_CATEGORY('part','NONE');
#27=PRODUCT_RELATED_PRODUCT_CATEGORY('detail',' ',(#68));
#28=PRODUCT_DEFINITION_SHAPE('NONE','NONE',#69);
#29=ADVANCED_BREP_SHAPE_REPRESENTATION('2020_01_20__08-31-31-460',(#67,#70),#6);
#32=UNCERTAINTY_MEASURE_WITH_UNIT(LENGTH_MEASURE(1.0E-006),#34,'','');
#34= (CONVERSION_BASED_UNIT('MILLIMETRE',#73)LENGTH_UNIT()NAMED_UNIT(#76));
#35= (NAMED_UNIT(#78)PLANE_ANGLE_UNIT()SI_UNIT($,.RADIAN.));
#36= (NAMED_UNIT(#78)SOLID_ANGLE_UNIT()SI_UNIT($,.STERADIAN.));
#38=PRESENTATION_STYLE_ASSIGNMENT((#84));
#39=ADVANCED_FACE('',(#85),#86,.F.);
#40=PRESENTATION_STYLE_ASSIGNMENT((#87));
#41=ADVANCED_FACE('',(#88),#89,.T.);
#42=PRESENTATION_STYLE_ASSIGNMENT((#90));
#43=ADVANCED_FACE('',(#91),#92,.T.);
#44=PRESENTATION_STYLE_ASSIGNMENT((#93));
#45=ADVANCED_FACE('',(#94),#95,.T.);
#46=PRESENTATION_STYLE_ASSIGNMENT((#96));
#47=ADVANCED_FACE('',(#97),#98,.T.);
#48=PRESENTATION_STYLE_ASSIGNMENT((#99));
#49=ADVANCED_FACE('',(#100),#101,.T.);
#50=PRESENTATION_STYLE_ASSIGNMENT((#102));
#51=ADVANCED_FACE('',(#103),#104,.F.);
#52=PRESENTATION_STYLE_ASSIGNMENT((#105));
#53=ADVANCED_FACE('',(#106),#107,.T.);
#54=PRESENTATION_STYLE_ASSIGNMENT((#108));
#55=ADVANCED_FACE('',(#109),#110,.F.);
#56=PRESENTATION_STYLE_ASSIGNMENT((#111));
#57=ADVANCED_FACE('',(#112),#113,.T.);
#58=PRESENTATION_STYLE_ASSIGNMENT((#114));
#59=ADVANCED_FACE('',(#115),#116,.T.);
#60=PRESENTATION_STYLE_ASSIGNMENT((#117));
#61=ADVANCED_FACE('',(#118),#119,.T.);
#62=PRESENTATION_STYLE_ASSIGNMENT((#120));
#63=ADVANCED_FACE('',(#121),#122,.T.);
#64=PRESENTATION_STYLE_ASSIGNMENT((#123));
#65=ADVANCED_FACE('',(#124),#125,.T.);
#66=PRESENTATION_STYLE_ASSIGNMENT((#126));
#67=MANIFOLD_SOLID_BREP('2020_01_20__08-31-31-460',#127);
#68=PRODUCT('2020_01_20__08-31-31-460','','PART--DESC',(#128));
#69=PRODUCT_DEFINITION('','NONE',#129,#2);
#70=AXIS2_PLACEMENT_3D('',#130,#131,#132);
#73=LENGTH_MEASURE_WITH_UNIT(LENGTH_MEASURE(1.0),#133);
#76=DIMENSIONAL_EXPONENTS(1.0,0.0,0.0,0.0,0.0,0.0,0.0);
#78=DIMENSIONAL_EXPONENTS(0.0,0.0,0.0,0.0,0.0,0.0,0.0);
#84=SURFACE_STYLE_USAGE(.BOTH.,#134);
#85=FACE_OUTER_BOUND('',#135,.T.);
#86=PLANE('',#136);
#87=SURFACE_STYLE_USAGE(.BOTH.,#137);
#88=FACE_OUTER_BOUND('',#138,.T.);
#89=PLANE('',#139);
#90=SURFACE_STYLE_USAGE(.BOTH.,#140);
#91=FACE_OUTER_BOUND('',#141,.T.);
#92=PLANE('',#142);
#93=SURFACE_STYLE_USAGE(.BOTH.,#143);
#94=FACE_OUTER_BOUND('',#144,.T.);
#95=PLANE('',#145);
#96=SURFACE_STYLE_USAGE(.BOTH.,#146);
#97=FACE_OUTER_BOUND('',#147,.T.);
#98=PLANE('',#148);
#99=SURFACE_STYLE_USAGE(.BOTH.,#149);
#100=FACE_OUTER_BOUND('',#150,.T.);
#101=PLANE('',#151);
#102=SURFACE_STYLE_USAGE(.BOTH.,#152);
#103=FACE_OUTER_BOUND('',#153,.T.);
#104=PLANE('',#154);
#105=SURFACE_STYLE_USAGE(.BOTH.,#155);
#106=FACE_OUTER_BOUND('',#156,.T.);
#107=PLANE('',#157);
#108=SURFACE_STYLE_USAGE(.BOTH.,#158);
#109=FACE_OUTER_BOUND('',#159,.T.);
#110=CYLINDRICAL_SURFACE('',#160,32.0);
#111=SURFACE_STYLE_USAGE(.BOTH.,#161);
#112=FACE_OUTER_BOUND('',#162,.T.);
#113=PLANE('',#163);
#114=SURFACE_STYLE_USAGE(.BOTH.,#164);
#115=FACE_OUTER_BOUND('',#165,.T.);
#116=PLANE('',#166);
#117=SURFACE_STYLE_USAGE(.BOTH.,#167);
#118=FACE_OUTER_BOUND('',#168,.T.);
#119=PLANE('',#169);
#120=SURFACE_STYLE_USAGE(.BOTH.,#170);
#121=FACE_OUTER_BOUND('',#171,.T.);
#122=PLANE('',#172);
#123=SURFACE_STYLE_USAGE(.BOTH.,#173);
#124=FACE_OUTER_BOUND('',#174,.T.);
#125=PLANE('',#175);
#126=SURFACE_STYLE_USAGE(.BOTH.,#176);
#127=CLOSED_SHELL('',(#39,#41,#43,#45,#47,#49,#51,#53,#55,#57,#59,#61,#63,#65));
#128=PRODUCT_CONTEXT('',#25,'mechanical');
#129=PRODUCT_DEFINITION_FORMATION_WITH_SPECIFIED_SOURCE(' ','NONE',#68,.NOT_KNOWN.);
#130=CARTESIAN_POINT('',(0.0,0.0,0.0));
#131=DIRECTION('',(0.0,0.0,1.0));
#132=DIRECTION('',(1.0,0.0,0.0));
#133= (NAMED_UNIT(#76)LENGTH_UNIT()SI_UNIT(.MILLI.,.METRE.));
#134=SURFACE_SIDE_STYLE('',(#178));
#135=EDGE_LOOP('',(#179,#180,#181,#182,#183,#184,#185,#186));
#136=AXIS2_PLACEMENT_3D('',#187,#188,#189);
#137=SURFACE_SIDE_STYLE('',(#190));
#138=EDGE_LOOP('',(#191,#192,#193,#194));
#139=AXIS2_PLACEMENT_3D('',#195,#196,#197);
#140=SURFACE_SIDE_STYLE('',(#198));
#141=EDGE_LOOP('',(#199,#200,#201,#202,#203,#204,#205,#206));
#142=AXIS2_PLACEMENT_3D('',#207,#208,#209);
#143=SURFACE_SIDE_STYLE('',(#210));
#144=EDGE_LOOP('',(#211,#212,#213,#214));
#145=AXIS2_PLACEMENT_3D('',#215,#216,#217);
#146=SURFACE_SIDE_STYLE('',(#218));
#147=EDGE_LOOP('',(#219,#220,#221,#222,#223,#224,#225,#226,#227,#228,#229,#230));
#148=AXIS2_PLACEMENT_3D('',#231,#232,#233);
#149=SURFACE_SIDE_STYLE('',(#234));
#150=EDGE_LOOP('',(#235,#236,#237,#238));
#151=AXIS2_PLACEMENT_3D('',#239,#240,#241);
#152=SURFACE_SIDE_STYLE('',(#242));
#153=EDGE_LOOP('',(#243,#244,#245,#246));
#154=AXIS2_PLACEMENT_3D('',#247,#248,#249);
#155=SURFACE_SIDE_STYLE('',(#250));
#156=EDGE_LOOP('',(#251,#252,#253,#254));
#157=AXIS2_PLACEMENT_3D('',#255,#256,#257);
#158=SURFACE_SIDE_STYLE('',(#258));
#159=EDGE_LOOP('',(#259,#260,#261,#262));
#160=AXIS2_PLACEMENT_3D('',#263,#264,#265);
#161=SURFACE_SIDE_STYLE('',(#266));
#162=EDGE_LOOP('',(#267,#268,#269,#270));
#163=AXIS2_PLACEMENT_3D('',#271,#272,#273);
#164=SURFACE_SIDE_STYLE('',(#274));
#165=EDGE_LOOP('',(#275,#276,#277,#278));
#166=AXIS2_PLACEMENT_3D('',#279,#280,#281);
#167=SURFACE_SIDE_STYLE('',(#282));
#168=EDGE_LOOP('',(#283,#284,#285,#286));
#169=AXIS2_PLACEMENT_3D('',#287,#288,#289);
#170=SURFACE_SIDE_STYLE('',(#290));
#171=EDGE_LOOP('',(#291,#292,#293,#294));
#172=AXIS2_PLACEMENT_3D('',#295,#296,#297);
#173=SURFACE_SIDE_STYLE('',(#298));
#174=EDGE_LOOP('',(#299,#300,#301,#302));
#175=AXIS2_PLACEMENT_3D('',#303,#304,#305);
#176=SURFACE_SIDE_STYLE('',(#306));
#178=SURFACE_STYLE_FILL_AREA(#307);
#179=ORIENTED_EDGE('',*,*,#308,.F.);
#180=ORIENTED_EDGE('',*,*,#309,.F.);
#181=ORIENTED_EDGE('',*,*,#310,.F.);
#182=ORIENTED_EDGE('',*,*,#311,.F.);
#183=ORIENTED_EDGE('',*,*,#312,.F.);
#184=ORIENTED_EDGE('',*,*,#313,.F.);
#185=ORIENTED_EDGE('',*,*,#314,.T.);
#186=ORIENTED_EDGE('',*,*,#315,.T.);
#187=CARTESIAN_POINT('',(-19.0,5.6843418860808E-014,1.16341445918999E-015));
#188=DIRECTION('',(1.0,-1.83697019872103E-016,1.12481983699639E-032));
#189=DIRECTION('',(0.0,6.12323399573677E-017,1.0));
#190=SURFACE_STYLE_FILL_AREA(#316);
#191=ORIENTED_EDGE('',*,*,#317,.F.);
#192=ORIENTED_EDGE('',*,*,#318,.F.);
#193=ORIENTED_EDGE('',*,*,#319,.F.);
#194=ORIENTED_EDGE('',*,*,#308,.T.);
#195=CARTESIAN_POINT('',(-19.0,-75.5,1.16341445918999E-015));
#196=DIRECTION('',(6.19878155847786E-048,1.0,3.37445951098918E-032));
#197=DIRECTION('',(1.0,0.0,-1.83697019872103E-016));
#198=SURFACE_STYLE_FILL_AREA(#320);
#199=ORIENTED_EDGE('',*,*,#321,.F.);
#200=ORIENTED_EDGE('',*,*,#322,.F.);
#201=ORIENTED_EDGE('',*,*,#323,.T.);
#202=ORIENTED_EDGE('',*,*,#324,.T.);
#203=ORIENTED_EDGE('',*,*,#325,.F.);
#204=ORIENTED_EDGE('',*,*,#326,.T.);
#205=ORIENTED_EDGE('',*,*,#317,.T.);
#206=ORIENTED_EDGE('',*,*,#315,.F.);
#207=CARTESIAN_POINT('',(-19.0,-75.5,8.5));
#208=DIRECTION('',(1.41758413738649E-016,0.909942021414433,-0.414735479148115));
#209=DIRECTION('',(-1.0,0.0,-3.41804405135117E-016));
#210=SURFACE_STYLE_FILL_AREA(#327);
#211=ORIENTED_EDGE('',*,*,#321,.T.);
#212=ORIENTED_EDGE('',*,*,#314,.F.);
#213=ORIENTED_EDGE('',*,*,#328,.F.);
#214=ORIENTED_EDGE('',*,*,#329,.T.);
#215=CARTESIAN_POINT('',(-19.0,-8.49999999999994,155.5));
#216=DIRECTION('',(-6.12323399573677E-017,1.12481983699639E-032,-1.0));
#217=DIRECTION('',(-1.0,0.0,6.12323399573677E-017));
#218=SURFACE_STYLE_FILL_AREA(#330);
#219=ORIENTED_EDGE('',*,*,#329,.F.);
#220=ORIENTED_EDGE('',*,*,#331,.F.);
#221=ORIENTED_EDGE('',*,*,#332,.T.);
#222=ORIENTED_EDGE('',*,*,#333,.T.);
#223=ORIENTED_EDGE('',*,*,#334,.T.);
#224=ORIENTED_EDGE('',*,*,#335,.F.);
#225=ORIENTED_EDGE('',*,*,#318,.T.);
#226=ORIENTED_EDGE('',*,*,#326,.F.);
#227=ORIENTED_EDGE('',*,*,#336,.T.);
#228=ORIENTED_EDGE('',*,*,#337,.F.);
#229=ORIENTED_EDGE('',*,*,#338,.F.);
#230=ORIENTED_EDGE('',*,*,#322,.T.);
#231=CARTESIAN_POINT('',(19.0,5.6843418860808E-014,-1.16341445918999E-015));
#232=DIRECTION('',(1.0,-1.83697019872103E-016,1.12481983699639E-032));
#233=DIRECTION('',(0.0,6.12323399573677E-017,1.0));
#234=SURFACE_STYLE_FILL_AREA(#339);
#235=ORIENTED_EDGE('',*,*,#340,.F.);
#236=ORIENTED_EDGE('',*,*,#323,.F.);
#237=ORIENTED_EDGE('',*,*,#338,.T.);
#238=ORIENTED_EDGE('',*,*,#341,.T.);
#239=CARTESIAN_POINT('',(19.0,-9.49999999999994,153.3059701493));
#240=DIRECTION('',(6.19878155847786E-048,1.0,3.37445951098918E-032));
#241=DIRECTION('',(1.0,0.0,-1.83697019872103E-016));
#242=SURFACE_STYLE_FILL_AREA(#342);
#243=ORIENTED_EDGE('',*,*,#324,.F.);
#244=ORIENTED_EDGE('',*,*,#340,.T.);
#245=ORIENTED_EDGE('',*,*,#343,.F.);
#246=ORIENTED_EDGE('',*,*,#344,.T.);
#247=CARTESIAN_POINT('',(16.5,5.6843418860808E-014,-1.01033360929657E-015));
#248=DIRECTION('',(1.0,-1.83697019872103E-016,1.12481983699639E-032));
#249=DIRECTION('',(0.0,6.12323399573677E-017,1.0));
#250=SURFACE_STYLE_FILL_AREA(#345);
#251=ORIENTED_EDGE('',*,*,#325,.T.);
#252=ORIENTED_EDGE('',*,*,#344,.F.);
#253=ORIENTED_EDGE('',*,*,#346,.F.);
#254=ORIENTED_EDGE('',*,*,#336,.F.);
#255=CARTESIAN_POINT('',(19.0,-30.5573231811999,9.5));
#256=DIRECTION('',(-6.12323399573677E-017,1.12481983699639E-032,-1.0));
#257=DIRECTION('',(-1.0,0.0,6.12323399573677E-017));
#258=SURFACE_STYLE_FILL_AREA(#347);
#259=ORIENTED_EDGE('',*,*,#343,.T.);
#260=ORIENTED_EDGE('',*,*,#341,.F.);
#261=ORIENTED_EDGE('',*,*,#337,.T.);
#262=ORIENTED_EDGE('',*,*,#346,.T.);
#263=CARTESIAN_POINT('',(19.0,5.6843418860808E-014,-1.16341445918999E-015));
#264=DIRECTION('',(1.0,-1.83697019872103E-016,-6.12323399573677E-017));
#265=DIRECTION('',(-1.83697019872103E-016,-1.0,0.0));
#266=SURFACE_STYLE_FILL_AREA(#348);
#267=ORIENTED_EDGE('',*,*,#319,.T.);
#268=ORIENTED_EDGE('',*,*,#335,.T.);
#269=ORIENTED_EDGE('',*,*,#349,.F.);
#270=ORIENTED_EDGE('',*,*,#309,.T.);
#271=CARTESIAN_POINT('',(-19.0,-82.5,1.16341445918999E-015));
#272=DIRECTION('',(-6.12323399573677E-017,1.12481983699639E-032,-1.0));
#273=DIRECTION('',(-1.0,0.0,6.12323399573677E-017));
#274=SURFACE_STYLE_FILL_AREA(#350);
#275=ORIENTED_EDGE('',*,*,#310,.T.);
#276=ORIENTED_EDGE('',*,*,#349,.T.);
#277=ORIENTED_EDGE('',*,*,#334,.F.);
#278=ORIENTED_EDGE('',*,*,#351,.F.);
#279=CARTESIAN_POINT('',(-19.0,-82.5,14.84236997399));
#280=DIRECTION('',(-1.83697019872103E-016,-1.0,0.0));
#281=DIRECTION('',(-1.0,1.83697019872103E-016,0.0));
#282=SURFACE_STYLE_FILL_AREA(#352);
#283=ORIENTED_EDGE('',*,*,#311,.T.);
#284=ORIENTED_EDGE('',*,*,#351,.T.);
#285=ORIENTED_EDGE('',*,*,#333,.F.);
#286=ORIENTED_EDGE('',*,*,#353,.F.);
#287=CARTESIAN_POINT('',(-19.0,-15.2002638656999,162.5));
#288=DIRECTION('',(-1.41758413738649E-016,-0.909942021414433,0.414735479148115));
#289=DIRECTION('',(-1.0,1.5578840234051E-016,0.0));
#290=SURFACE_STYLE_FILL_AREA(#354);
#291=ORIENTED_EDGE('',*,*,#312,.T.);
#292=ORIENTED_EDGE('',*,*,#353,.T.);
#293=ORIENTED_EDGE('',*,*,#332,.F.);
#294=ORIENTED_EDGE('',*,*,#355,.F.);
#295=CARTESIAN_POINT('',(-19.0,5.6843418860808E-014,162.5));
#296=DIRECTION('',(-4.59169004331692E-049,-7.49879891330925E-033,1.0));
#297=DIRECTION('',(1.0,-6.12323399573677E-017,0.0));
#298=SURFACE_STYLE_FILL_AREA(#356);
#299=ORIENTED_EDGE('',*,*,#328,.T.);
#300=ORIENTED_EDGE('',*,*,#313,.T.);
#301=ORIENTED_EDGE('',*,*,#355,.T.);
#302=ORIENTED_EDGE('',*,*,#331,.T.);
#303=CARTESIAN_POINT('',(-19.0,5.6843418860808E-014,155.5));
#304=DIRECTION('',(6.19878155847786E-048,1.0,3.37445951098918E-032));
#305=DIRECTION('',(1.0,0.0,-1.83697019872103E-016));
#306=SURFACE_STYLE_FILL_AREA(#357);
#307=FILL_AREA_STYLE('',(#358));
#308=EDGE_CURVE('',#359,#360,#361,.T.);
#309=EDGE_CURVE('',#362,#359,#363,.T.);
#310=EDGE_CURVE('',#364,#362,#365,.T.);
#311=EDGE_CURVE('',#366,#364,#367,.T.);
#312=EDGE_CURVE('',#368,#366,#369,.T.);
#313=EDGE_CURVE('',#370,#368,#371,.T.);
#314=EDGE_CURVE('',#370,#372,#373,.T.);
#315=EDGE_CURVE('',#372,#360,#374,.T.);
#316=FILL_AREA_STYLE('',(#375));
#317=EDGE_CURVE('',#376,#360,#377,.T.);
#318=EDGE_CURVE('',#378,#376,#379,.T.);
#319=EDGE_CURVE('',#359,#378,#380,.T.);
#320=FILL_AREA_STYLE('',(#381));
#321=EDGE_CURVE('',#382,#372,#383,.T.);
#322=EDGE_CURVE('',#384,#382,#385,.T.);
#323=EDGE_CURVE('',#384,#386,#387,.T.);
#324=EDGE_CURVE('',#386,#388,#389,.T.);
#325=EDGE_CURVE('',#390,#388,#391,.T.);
#326=EDGE_CURVE('',#390,#376,#392,.T.);
#327=FILL_AREA_STYLE('',(#393));
#328=EDGE_CURVE('',#394,#370,#395,.T.);
#329=EDGE_CURVE('',#394,#382,#396,.T.);
#330=FILL_AREA_STYLE('',(#397));
#331=EDGE_CURVE('',#398,#394,#399,.T.);
#332=EDGE_CURVE('',#398,#400,#401,.T.);
#333=EDGE_CURVE('',#400,#402,#403,.T.);
#334=EDGE_CURVE('',#402,#404,#405,.T.);
#335=EDGE_CURVE('',#378,#404,#406,.T.);
#336=EDGE_CURVE('',#390,#407,#408,.T.);
#337=EDGE_CURVE('',#409,#407,#410,.T.);
#338=EDGE_CURVE('',#384,#409,#411,.T.);
#339=FILL_AREA_STYLE('',(#412));
#340=EDGE_CURVE('',#386,#413,#414,.T.);
#341=EDGE_CURVE('',#409,#413,#415,.T.);
#342=FILL_AREA_STYLE('',(#416));
#343=EDGE_CURVE('',#417,#413,#418,.T.);
#344=EDGE_CURVE('',#417,#388,#419,.T.);
#345=FILL_AREA_STYLE('',(#420));
#346=EDGE_CURVE('',#407,#417,#421,.T.);
#347=FILL_AREA_STYLE('',(#422));
#348=FILL_AREA_STYLE('',(#423));
#349=EDGE_CURVE('',#362,#404,#424,.T.);
#350=FILL_AREA_STYLE('',(#425));
#351=EDGE_CURVE('',#364,#402,#426,.T.);
#352=FILL_AREA_STYLE('',(#427));
#353=EDGE_CURVE('',#366,#400,#428,.T.);
#354=FILL_AREA_STYLE('',(#429));
#355=EDGE_CURVE('',#368,#398,#430,.T.);
#356=FILL_AREA_STYLE('',(#431));
#357=FILL_AREA_STYLE('',(#432));
#358=FILL_AREA_STYLE_COLOUR('',#433);
#359=VERTEX_POINT('',#434);
#360=VERTEX_POINT('',#435);
#361=LINE('',#436,#437);
#362=VERTEX_POINT('',#438);
#363=LINE('',#439,#440);
#364=VERTEX_POINT('',#441);
#365=LINE('',#442,#443);
#366=VERTEX_POINT('',#444);
#367=LINE('',#445,#446);
#368=VERTEX_POINT('',#447);
#369=LINE('',#448,#449);
#370=VERTEX_POINT('',#450);
#371=LINE('',#451,#452);
#372=VERTEX_POINT('',#453);
#373=LINE('',#454,#455);
#374=LINE('',#456,#457);
#375=FILL_AREA_STYLE_COLOUR('',#458);
#376=VERTEX_POINT('',#459);
#377=LINE('',#460,#461);
#378=VERTEX_POINT('',#462);
#379=LINE('',#463,#464);
#380=LINE('',#465,#466);
#381=FILL_AREA_STYLE_COLOUR('',#467);
#382=VERTEX_POINT('',#468);
#383=LINE('',#469,#470);
#384=VERTEX_POINT('',#471);
#385=LINE('',#472,#473);
#386=VERTEX_POINT('',#474);
#387=LINE('',#475,#476);
#388=VERTEX_POINT('',#477);
#389=LINE('',#478,#479);
#390=VERTEX_POINT('',#480);
#391=LINE('',#481,#482);
#392=LINE('',#483,#484);
#393=FILL_AREA_STYLE_COLOUR('',#485);
#394=VERTEX_POINT('',#486);
#395=LINE('',#487,#488);
#396=LINE('',#489,#490);
#397=FILL_AREA_STYLE_COLOUR('',#491);
#398=VERTEX_POINT('',#492);
#399=LINE('',#493,#494);
#400=VERTEX_POINT('',#495);
#401=LINE('',#496,#497);
#402=VERTEX_POINT('',#498);
#403=LINE('',#499,#500);
#404=VERTEX_POINT('',#501);
#405=LINE('',#502,#503);
#406=LINE('',#504,#505);
#407=VERTEX_POINT('',#506);
#408=LINE('',#507,#508);
#409=VERTEX_POINT('',#509);
#410=CIRCLE('',#510,32.0);
#411=LINE('',#511,#512);
#412=FILL_AREA_STYLE_COLOUR('',#513);
#413=VERTEX_POINT('',#514);
#414=LINE('',#515,#516);
#415=LINE('',#517,#518);
#416=FILL_AREA_STYLE_COLOUR('',#519);
#417=VERTEX_POINT('',#520);
#418=CIRCLE('',#521,32.0);
#419=LINE('',#522,#523);
#420=FILL_AREA_STYLE_COLOUR('',#524);
#421=LINE('',#525,#526);
#422=FILL_AREA_STYLE_COLOUR('',#527);
#423=FILL_AREA_STYLE_COLOUR('',#528);
#424=LINE('',#529,#530);
#425=FILL_AREA_STYLE_COLOUR('',#531);
#426=LINE('',#532,#533);
#427=FILL_AREA_STYLE_COLOUR('',#534);
#428=LINE('',#535,#536);
#429=FILL_AREA_STYLE_COLOUR('',#537);
#430=LINE('',#538,#539);
#431=FILL_AREA_STYLE_COLOUR('',#540);
#432=FILL_AREA_STYLE_COLOUR('',#541);
#433=COLOUR_RGB('',0.61176472902298,0.61176472902298,0.650980412960052);
#434=CARTESIAN_POINT('',(-19.0,-75.5,1.16341445918999E-015));
#435=CARTESIAN_POINT('',(-19.0,-75.5,8.5));
#436=CARTESIAN_POINT('',(-19.0,-75.5,1.16341445918999E-015));
#437=VECTOR('',#542,8.5);
#438=CARTESIAN_POINT('',(-19.0,-82.5,1.16341445918999E-015));
#439=CARTESIAN_POINT('',(-19.0,-82.5,1.16341445918999E-015));
#440=VECTOR('',#543,7.00000000000001);
#441=CARTESIAN_POINT('',(-19.0,-82.5,14.84236997399));
#442=CARTESIAN_POINT('',(-19.0,-82.5,14.84236997399));
#443=VECTOR('',#544,14.84236997399);
#444=CARTESIAN_POINT('',(-19.0,-15.2002638656999,162.5));
#445=CARTESIAN_POINT('',(-19.0,-15.2002638656999,162.5));
#446=VECTOR('',#545,162.271470655333);
#447=CARTESIAN_POINT('',(-19.0,5.6843418860808E-014,162.5));
#448=CARTESIAN_POINT('',(-19.0,5.6843418860808E-014,162.5));
#449=VECTOR('',#546,15.2002638657);
#450=CARTESIAN_POINT('',(-19.0,5.6843418860808E-014,155.5));
#451=CARTESIAN_POINT('',(-19.0,5.6843418860808E-014,155.5));
#452=VECTOR('',#547,7.00000000000001);
#453=CARTESIAN_POINT('',(-19.0,-8.49999999999994,155.5));
#454=CARTESIAN_POINT('',(-19.0,5.6843418860808E-014,155.5));
#455=VECTOR('',#548,8.5);
#456=CARTESIAN_POINT('',(-19.0,-8.49999999999994,155.5));
#457=VECTOR('',#549,161.548754250845);
#458=COLOUR_RGB('',0.61176472902298,0.61176472902298,0.650980412960052);
#459=CARTESIAN_POINT('',(19.0,-75.5,8.5));
#460=CARTESIAN_POINT('',(19.0,-75.5,8.5));
#461=VECTOR('',#550,38.0);
#462=CARTESIAN_POINT('',(19.0,-75.5,-1.16341445918999E-015));
#463=CARTESIAN_POINT('',(19.0,-75.5,-1.16341445918999E-015));
#464=VECTOR('',#551,8.5);
#465=CARTESIAN_POINT('',(-19.0,-75.5,1.16341445918999E-015));
#466=VECTOR('',#552,38.0);
#467=COLOUR_RGB('',0.61176472902298,0.61176472902298,0.650980412960052);
#468=CARTESIAN_POINT('',(19.0,-8.49999999999994,155.5));
#469=CARTESIAN_POINT('',(19.0,-8.49999999999994,155.5));
#470=VECTOR('',#553,38.0);
#471=CARTESIAN_POINT('',(19.0,-9.49999999999994,153.3059701493));
#472=CARTESIAN_POINT('',(19.0,-9.49999999999994,153.3059701493));
#473=VECTOR('',#554,2.41117543653767);
#474=CARTESIAN_POINT('',(16.5,-9.49999999999994,153.3059701493));
#475=CARTESIAN_POINT('',(19.0,-9.49999999999994,153.3059701493));
#476=VECTOR('',#555,2.5);
#477=CARTESIAN_POINT('',(16.5,-75.0442176870699,9.5));
#478=CARTESIAN_POINT('',(16.5,-9.49999999999994,153.3059701493));
#479=VECTOR('',#556,158.038607696953);
#480=CARTESIAN_POINT('',(19.0,-75.0442176870699,9.5));
#481=CARTESIAN_POINT('',(19.0,-75.0442176870699,9.5));
#482=VECTOR('',#557,2.5);
#483=CARTESIAN_POINT('',(19.0,-75.0442176870699,9.5));
#484=VECTOR('',#558,1.09897111735472);
#485=COLOUR_RGB('',0.61176472902298,0.61176472902298,0.650980412960052);
#486=CARTESIAN_POINT('',(19.0,5.6843418860808E-014,155.5));
#487=CARTESIAN_POINT('',(19.0,5.6843418860808E-014,155.5));
#488=VECTOR('',#559,38.0);
#489=CARTESIAN_POINT('',(19.0,5.6843418860808E-014,155.5));
#490=VECTOR('',#560,8.5);
#491=COLOUR_RGB('',0.61176472902298,0.61176472902298,0.650980412960052);
#492=CARTESIAN_POINT('',(19.0,5.6843418860808E-014,162.5));
#493=CARTESIAN_POINT('',(19.0,5.6843418860808E-014,162.5));
#494=VECTOR('',#561,7.00000000000001);
#495=CARTESIAN_POINT('',(19.0,-15.2002638656999,162.5));
#496=CARTESIAN_POINT('',(19.0,5.6843418860808E-014,162.5));
#497=VECTOR('',#562,15.2002638657);
#498=CARTESIAN_POINT('',(19.0,-82.5,14.84236997399));
#499=CARTESIAN_POINT('',(19.0,-15.2002638656999,162.5));
#500=VECTOR('',#563,162.271470655333);
#501=CARTESIAN_POINT('',(19.0,-82.5,-1.16341445918999E-015));
#502=CARTESIAN_POINT('',(19.0,-82.5,14.84236997399));
#503=VECTOR('',#564,14.84236997399);
#504=CARTESIAN_POINT('',(19.0,-75.5,-1.16341445918999E-015));
#505=VECTOR('',#565,7.00000000000001);
#506=CARTESIAN_POINT('',(19.0,-30.5573231811999,9.5));
#507=CARTESIAN_POINT('',(19.0,-75.0442176870699,9.5));
#508=VECTOR('',#566,44.48689450587);
#509=CARTESIAN_POINT('',(19.0,-9.49999999999994,30.5573231812));
#510=AXIS2_PLACEMENT_3D('',#567,#568,#569);
#511=CARTESIAN_POINT('',(19.0,-9.49999999999994,153.3059701493));
#512=VECTOR('',#570,122.7486469681);
#513=COLOUR_RGB('',0.61176472902298,0.61176472902298,0.650980412960052);
#514=CARTESIAN_POINT('',(16.5,-9.49999999999994,30.5573231812));
#515=CARTESIAN_POINT('',(16.5,-9.49999999999994,153.3059701493));
#516=VECTOR('',#571,122.7486469681);
#517=CARTESIAN_POINT('',(19.0,-9.49999999999994,30.5573231812));
#518=VECTOR('',#572,2.5);
#519=COLOUR_RGB('',0.61176472902298,0.61176472902298,0.650980412960052);
#520=CARTESIAN_POINT('',(16.5,-30.5573231811999,9.5));
#521=AXIS2_PLACEMENT_3D('',#573,#574,#575);
#522=CARTESIAN_POINT('',(16.5,-30.5573231811999,9.5));
#523=VECTOR('',#576,44.48689450587);
#524=COLOUR_RGB('',0.61176472902298,0.61176472902298,0.650980412960052);
#525=CARTESIAN_POINT('',(19.0,-30.5573231811999,9.5));
#526=VECTOR('',#577,2.5);
#527=COLOUR_RGB('',0.61176472902298,0.61176472902298,0.650980412960052);
#528=COLOUR_RGB('',0.61176472902298,0.61176472902298,0.650980412960052);
#529=CARTESIAN_POINT('',(-19.0,-82.5,1.16341445918999E-015));
#530=VECTOR('',#578,38.0);
#531=COLOUR_RGB('',0.61176472902298,0.61176472902298,0.650980412960052);
#532=CARTESIAN_POINT('',(-19.0,-82.5,14.84236997399));
#533=VECTOR('',#579,38.0);
#534=COLOUR_RGB('',0.61176472902298,0.61176472902298,0.650980412960052);
#535=CARTESIAN_POINT('',(-19.0,-15.2002638656999,162.5));
#536=VECTOR('',#580,38.0);
#537=COLOUR_RGB('',0.61176472902298,0.61176472902298,0.650980412960052);
#538=CARTESIAN_POINT('',(-19.0,5.6843418860808E-014,162.5));
#539=VECTOR('',#581,38.0);
#540=COLOUR_RGB('',0.61176472902298,0.61176472902298,0.650980412960052);
#541=COLOUR_RGB('',0.61176472902298,0.61176472902298,0.650980412960052);
#542=DIRECTION('',(6.12323399573677E-017,-1.12481983699639E-032,1.0));
#543=DIRECTION('',(1.83697019872103E-016,1.0,0.0));
#544=DIRECTION('',(-6.12323399573677E-017,1.12481983699639E-032,-1.0));
#545=DIRECTION('',(-1.3190355075148E-016,-0.414735479148115,-0.909942021414432));
#546=DIRECTION('',(-1.83697019872103E-016,-1.0,0.0));
#547=DIRECTION('',(6.12323399573677E-017,-1.12481983699639E-032,1.0));
#548=DIRECTION('',(-1.83697019872103E-016,-1.0,0.0));
#549=DIRECTION('',(-1.3190355075148E-016,-0.414735479148115,-0.909942021414432));
#550=DIRECTION('',(-1.0,1.83697019872103E-016,6.12323399573677E-017));
#551=DIRECTION('',(6.12323399573677E-017,-1.12481983699639E-032,1.0));
#552=DIRECTION('',(1.0,-1.83697019872103E-016,-6.12323399573677E-017));
#553=DIRECTION('',(-1.0,1.83697019872103E-016,6.12323399573677E-017));
#554=DIRECTION('',(1.3190355075148E-016,0.414735479148115,0.909942021414432));
#555=DIRECTION('',(-1.0,1.83697019872103E-016,-1.13074514322026E-014));
#556=DIRECTION('',(-1.3190355075148E-016,-0.414735479148115,-0.909942021414432));
#557=DIRECTION('',(-1.0,1.83697019872103E-016,6.12323399573677E-017));
#558=DIRECTION('',(-1.3190355075148E-016,-0.414735479148115,-0.909942021414432));
#559=DIRECTION('',(-1.0,1.83697019872103E-016,6.12323399573677E-017));
#560=DIRECTION('',(-1.83697019872103E-016,-1.0,0.0));
#561=DIRECTION('',(-6.12323399573677E-017,1.12481983699639E-032,-1.0));
#562=DIRECTION('',(-1.83697019872103E-016,-1.0,0.0));
#563=DIRECTION('',(-1.3190355075148E-016,-0.414735479148115,-0.909942021414432));
#564=DIRECTION('',(-6.12323399573677E-017,1.12481983699639E-032,-1.0));
#565=DIRECTION('',(-1.83697019872103E-016,-1.0,0.0));
#566=DIRECTION('',(1.83697019872103E-016,1.0,0.0));
#567=CARTESIAN_POINT('',(19.0,5.6843418860808E-014,-1.16341445918999E-015));
#568=DIRECTION('',(1.0,-1.83697019872103E-016,-6.12323399573677E-017));
#569=DIRECTION('',(3.93670976353203E-018,-0.296875000000013,0.954916349412341));
#570=DIRECTION('',(-6.12323399573677E-017,1.12481983699639E-032,-1.0));
#571=DIRECTION('',(-6.12323399573677E-017,1.12481983699639E-032,-1.0));
#572=DIRECTION('',(-1.0,1.83697019872103E-016,6.12323399573677E-017));
#573=CARTESIAN_POINT('',(16.5,5.6843418860808E-014,-1.01033360929657E-015));
#574=DIRECTION('',(-1.0,1.83697019872103E-016,6.12323399573675E-017));
#575=DIRECTION('',(-1.57236936689351E-016,-0.954916349412341,0.296875000000013));
#576=DIRECTION('',(-1.83697019872103E-016,-1.0,0.0));
#577=DIRECTION('',(-1.0,1.83697019872103E-016,6.12323399573677E-017));
#578=DIRECTION('',(1.0,-1.83697019872103E-016,-6.12323399573677E-017));
#579=DIRECTION('',(1.0,-1.83697019872103E-016,-6.12323399573677E-017));
#580=DIRECTION('',(1.0,-1.83697019872103E-016,-6.12323399573677E-017));
#581=DIRECTION('',(1.0,-1.83697019872103E-016,-6.12323399573677E-017));
ENDSEC;
END-ISO-10303-21;
