ISO-10303-21;
HEADER;
FILE_DESCRIPTION(('STEP AP214'),'1');
FILE_NAME('cctmp_35C530C6-8805-4D84-88FD-CA7170CF938F_2020_1_20_8_29_39_421..stp','2020-01-20T07:29:39',('Bosch Rexroth AG'),('CADClick - www.CADClick.com'),'Spatial InterOp 3D',' ','unknown authorization - (Healing Option Enabled)');
FILE_SCHEMA(('AUTOMOTIVE_DESIGN'));
ENDSEC;
DATA;
#1=MECHANICAL_DESIGN_GEOMETRIC_PRESENTATION_REPRESENTATION(' ',(#10,#11,#12,#13,#14,#15,#16,#17,#18,#19,#20,#21,#22,#23),#6);
#2=PRODUCT_DEFINITION_CONTEXT('',#24,'design');
#3=APPLICATION_PROTOCOL_DEFINITION('INTERNATIONAL STANDARD','automotive_design',1994,#24);
#4=PRODUCT_CATEGORY_RELATIONSHIP('NONE','NONE',#25,#26);
#5=SHAPE_DEFINITION_REPRESENTATION(#27,#28);
#6= (GEOMETRIC_REPRESENTATION_CONTEXT(3)GLOBAL_UNCERTAINTY_ASSIGNED_CONTEXT((#31))GLOBAL_UNIT_ASSIGNED_CONTEXT((#33,#34,#35))REPRESENTATION_CONTEXT('NONE','WORKSPACE'));
#10=STYLED_ITEM('',(#37),#38);
#11=STYLED_ITEM('',(#39),#40);
#12=STYLED_ITEM('',(#41),#42);
#13=STYLED_ITEM('',(#43),#44);
#14=STYLED_ITEM('',(#45),#46);
#15=STYLED_ITEM('',(#47),#48);
#16=STYLED_ITEM('',(#49),#50);
#17=STYLED_ITEM('',(#51),#52);
#18=STYLED_ITEM('',(#53),#54);
#19=STYLED_ITEM('',(#55),#56);
#20=STYLED_ITEM('',(#57),#58);
#21=STYLED_ITEM('',(#59),#60);
#22=STYLED_ITEM('',(#61),#62);
#23=STYLED_ITEM('',(#63),#64);
#24=APPLICATION_CONTEXT(' ');
#25=PRODUCT_CATEGORY('part','NONE');
#26=PRODUCT_RELATED_PRODUCT_CATEGORY('detail',' ',(#65));
#27=PRODUCT_DEFINITION_SHAPE('NONE','NONE',#66);
#28=ADVANCED_BREP_SHAPE_REPRESENTATION('2020_01_20__08-29-39-421',(#64,#67),#6);
#31=UNCERTAINTY_MEASURE_WITH_UNIT(LENGTH_MEASURE(1.0E-006),#33,'','');
#33= (CONVERSION_BASED_UNIT('MILLIMETRE',#70)LENGTH_UNIT()NAMED_UNIT(#73));
#34= (NAMED_UNIT(#75)PLANE_ANGLE_UNIT()SI_UNIT($,.RADIAN.));
#35= (NAMED_UNIT(#75)SOLID_ANGLE_UNIT()SI_UNIT($,.STERADIAN.));
#37=PRESENTATION_STYLE_ASSIGNMENT((#81));
#38=ADVANCED_FACE('',(#82),#83,.F.);
#39=PRESENTATION_STYLE_ASSIGNMENT((#84));
#40=ADVANCED_FACE('',(#85),#86,.F.);
#41=PRESENTATION_STYLE_ASSIGNMENT((#87));
#42=ADVANCED_FACE('',(#88),#89,.T.);
#43=PRESENTATION_STYLE_ASSIGNMENT((#90));
#44=ADVANCED_FACE('',(#91),#92,.T.);
#45=PRESENTATION_STYLE_ASSIGNMENT((#93));
#46=ADVANCED_FACE('',(#94),#95,.T.);
#47=PRESENTATION_STYLE_ASSIGNMENT((#96));
#48=ADVANCED_FACE('',(#97),#98,.T.);
#49=PRESENTATION_STYLE_ASSIGNMENT((#99));
#50=ADVANCED_FACE('',(#100),#101,.F.);
#51=PRESENTATION_STYLE_ASSIGNMENT((#102));
#52=ADVANCED_FACE('',(#103),#104,.T.);
#53=PRESENTATION_STYLE_ASSIGNMENT((#105));
#54=ADVANCED_FACE('',(#106),#107,.T.);
#55=PRESENTATION_STYLE_ASSIGNMENT((#108));
#56=ADVANCED_FACE('',(#109),#110,.T.);
#57=PRESENTATION_STYLE_ASSIGNMENT((#111));
#58=ADVANCED_FACE('',(#112),#113,.F.);
#59=PRESENTATION_STYLE_ASSIGNMENT((#114));
#60=ADVANCED_FACE('',(#115),#116,.F.);
#61=PRESENTATION_STYLE_ASSIGNMENT((#117));
#62=ADVANCED_FACE('',(#118),#119,.T.);
#63=PRESENTATION_STYLE_ASSIGNMENT((#120));
#64=MANIFOLD_SOLID_BREP('2020_01_20__08-29-39-421',#121);
#65=PRODUCT('2020_01_20__08-29-39-421','','PART--DESC',(#122));
#66=PRODUCT_DEFINITION('','NONE',#123,#2);
#67=AXIS2_PLACEMENT_3D('',#124,#125,#126);
#70=LENGTH_MEASURE_WITH_UNIT(LENGTH_MEASURE(1.0),#127);
#73=DIMENSIONAL_EXPONENTS(1.0,0.0,0.0,0.0,0.0,0.0,0.0);
#75=DIMENSIONAL_EXPONENTS(0.0,0.0,0.0,0.0,0.0,0.0,0.0);
#81=SURFACE_STYLE_USAGE(.BOTH.,#128);
#82=FACE_OUTER_BOUND('',#129,.T.);
#83=PLANE('',#130);
#84=SURFACE_STYLE_USAGE(.BOTH.,#131);
#85=FACE_OUTER_BOUND('',#132,.T.);
#86=PLANE('',#133);
#87=SURFACE_STYLE_USAGE(.BOTH.,#134);
#88=FACE_OUTER_BOUND('',#135,.T.);
#89=PLANE('',#136);
#90=SURFACE_STYLE_USAGE(.BOTH.,#137);
#91=FACE_OUTER_BOUND('',#138,.T.);
#92=PLANE('',#139);
#93=SURFACE_STYLE_USAGE(.BOTH.,#140);
#94=FACE_OUTER_BOUND('',#141,.T.);
#95=PLANE('',#142);
#96=SURFACE_STYLE_USAGE(.BOTH.,#143);
#97=FACE_OUTER_BOUND('',#144,.T.);
#98=PLANE('',#145);
#99=SURFACE_STYLE_USAGE(.BOTH.,#146);
#100=FACE_OUTER_BOUND('',#147,.T.);
#101=PLANE('',#148);
#102=SURFACE_STYLE_USAGE(.BOTH.,#149);
#103=FACE_OUTER_BOUND('',#150,.T.);
#104=PLANE('',#151);
#105=SURFACE_STYLE_USAGE(.BOTH.,#152);
#106=FACE_OUTER_BOUND('',#153,.T.);
#107=PLANE('',#154);
#108=SURFACE_STYLE_USAGE(.BOTH.,#155);
#109=FACE_OUTER_BOUND('',#156,.T.);
#110=PLANE('',#157);
#111=SURFACE_STYLE_USAGE(.BOTH.,#158);
#112=FACE_OUTER_BOUND('',#159,.T.);
#113=PLANE('',#160);
#114=SURFACE_STYLE_USAGE(.BOTH.,#161);
#115=FACE_OUTER_BOUND('',#162,.T.);
#116=PLANE('',#163);
#117=SURFACE_STYLE_USAGE(.BOTH.,#164);
#118=FACE_OUTER_BOUND('',#165,.T.);
#119=PLANE('',#166);
#120=SURFACE_STYLE_USAGE(.BOTH.,#167);
#121=CLOSED_SHELL('',(#38,#40,#42,#44,#46,#48,#50,#52,#54,#56,#58,#60,#62));
#122=PRODUCT_CONTEXT('',#24,'mechanical');
#123=PRODUCT_DEFINITION_FORMATION_WITH_SPECIFIED_SOURCE(' ','NONE',#65,.NOT_KNOWN.);
#124=CARTESIAN_POINT('',(0.0,0.0,0.0));
#125=DIRECTION('',(0.0,0.0,1.0));
#126=DIRECTION('',(1.0,0.0,0.0));
#127= (NAMED_UNIT(#73)LENGTH_UNIT()SI_UNIT(.MILLI.,.METRE.));
#128=SURFACE_SIDE_STYLE('',(#169));
#129=EDGE_LOOP('',(#170,#171,#172,#173,#174,#175,#176,#177,#178,#179,#180));
#130=AXIS2_PLACEMENT_3D('',#181,#182,#183);
#131=SURFACE_SIDE_STYLE('',(#184));
#132=EDGE_LOOP('',(#185,#186,#187,#188));
#133=AXIS2_PLACEMENT_3D('',#189,#190,#191);
#134=SURFACE_SIDE_STYLE('',(#192));
#135=EDGE_LOOP('',(#193,#194,#195,#196,#197,#198,#199,#200));
#136=AXIS2_PLACEMENT_3D('',#201,#202,#203);
#137=SURFACE_SIDE_STYLE('',(#204));
#138=EDGE_LOOP('',(#205,#206,#207,#208));
#139=AXIS2_PLACEMENT_3D('',#209,#210,#211);
#140=SURFACE_SIDE_STYLE('',(#212));
#141=EDGE_LOOP('',(#213,#214,#215,#216));
#142=AXIS2_PLACEMENT_3D('',#217,#218,#219);
#143=SURFACE_SIDE_STYLE('',(#220));
#144=EDGE_LOOP('',(#221,#222,#223));
#145=AXIS2_PLACEMENT_3D('',#224,#225,#226);
#146=SURFACE_SIDE_STYLE('',(#227));
#147=EDGE_LOOP('',(#228,#229,#230,#231,#232,#233,#234,#235));
#148=AXIS2_PLACEMENT_3D('',#236,#237,#238);
#149=SURFACE_SIDE_STYLE('',(#239));
#150=EDGE_LOOP('',(#240,#241,#242,#243));
#151=AXIS2_PLACEMENT_3D('',#244,#245,#246);
#152=SURFACE_SIDE_STYLE('',(#247));
#153=EDGE_LOOP('',(#248,#249,#250,#251));
#154=AXIS2_PLACEMENT_3D('',#252,#253,#254);
#155=SURFACE_SIDE_STYLE('',(#255));
#156=EDGE_LOOP('',(#256,#257,#258,#259));
#157=AXIS2_PLACEMENT_3D('',#260,#261,#262);
#158=SURFACE_SIDE_STYLE('',(#263));
#159=EDGE_LOOP('',(#264,#265,#266,#267));
#160=AXIS2_PLACEMENT_3D('',#268,#269,#270);
#161=SURFACE_SIDE_STYLE('',(#271));
#162=EDGE_LOOP('',(#272,#273,#274,#275));
#163=AXIS2_PLACEMENT_3D('',#276,#277,#278);
#164=SURFACE_SIDE_STYLE('',(#279));
#165=EDGE_LOOP('',(#280,#281,#282,#283));
#166=AXIS2_PLACEMENT_3D('',#284,#285,#286);
#167=SURFACE_SIDE_STYLE('',(#287));
#169=SURFACE_STYLE_FILL_AREA(#288);
#170=ORIENTED_EDGE('',*,*,#289,.F.);
#171=ORIENTED_EDGE('',*,*,#290,.T.);
#172=ORIENTED_EDGE('',*,*,#291,.T.);
#173=ORIENTED_EDGE('',*,*,#292,.T.);
#174=ORIENTED_EDGE('',*,*,#293,.F.);
#175=ORIENTED_EDGE('',*,*,#294,.F.);
#176=ORIENTED_EDGE('',*,*,#295,.T.);
#177=ORIENTED_EDGE('',*,*,#296,.F.);
#178=ORIENTED_EDGE('',*,*,#297,.T.);
#179=ORIENTED_EDGE('',*,*,#298,.T.);
#180=ORIENTED_EDGE('',*,*,#299,.T.);
#181=CARTESIAN_POINT('',(19.0,-2.27373675443232E-013,-2.32682891837996E-015));
#182=DIRECTION('',(-1.0,1.49975978266186E-032,2.44929359829471E-016));
#183=DIRECTION('',(1.49975978266186E-032,1.0,0.0));
#184=SURFACE_STYLE_FILL_AREA(#300);
#185=ORIENTED_EDGE('',*,*,#301,.F.);
#186=ORIENTED_EDGE('',*,*,#302,.F.);
#187=ORIENTED_EDGE('',*,*,#303,.F.);
#188=ORIENTED_EDGE('',*,*,#289,.T.);
#189=CARTESIAN_POINT('',(14.55,-2.27373675443232E-013,76.0));
#190=DIRECTION('',(1.49975978266186E-032,6.12323399573678E-017,1.0));
#191=DIRECTION('',(1.0,-2.44929359829471E-016,0.0));
#192=SURFACE_STYLE_FILL_AREA(#304);
#193=ORIENTED_EDGE('',*,*,#305,.F.);
#194=ORIENTED_EDGE('',*,*,#296,.T.);
#195=ORIENTED_EDGE('',*,*,#306,.T.);
#196=ORIENTED_EDGE('',*,*,#307,.F.);
#197=ORIENTED_EDGE('',*,*,#301,.T.);
#198=ORIENTED_EDGE('',*,*,#299,.F.);
#199=ORIENTED_EDGE('',*,*,#308,.T.);
#200=ORIENTED_EDGE('',*,*,#309,.F.);
#201=CARTESIAN_POINT('',(1.02356005847048E-014,-41.7900107681201,41.7900107681301));
#202=DIRECTION('',(-1.73191211247099E-016,0.707106781186548,-0.707106781186548));
#203=DIRECTION('',(-1.0,0.0,2.44929359829471E-016));
#204=SURFACE_STYLE_FILL_AREA(#310);
#205=ORIENTED_EDGE('',*,*,#305,.T.);
#206=ORIENTED_EDGE('',*,*,#311,.F.);
#207=ORIENTED_EDGE('',*,*,#312,.F.);
#208=ORIENTED_EDGE('',*,*,#297,.F.);
#209=CARTESIAN_POINT('',(19.0,-8.50000000000023,8.5));
#210=DIRECTION('',(-2.44929359829471E-016,-6.12323399573677E-017,-1.0));
#211=DIRECTION('',(-1.0,0.0,2.44929359829471E-016));
#212=SURFACE_STYLE_FILL_AREA(#313);
#213=ORIENTED_EDGE('',*,*,#298,.F.);
#214=ORIENTED_EDGE('',*,*,#312,.T.);
#215=ORIENTED_EDGE('',*,*,#314,.F.);
#216=ORIENTED_EDGE('',*,*,#308,.F.);
#217=CARTESIAN_POINT('',(19.0,-8.50000000000023,78.3));
#218=DIRECTION('',(0.0,1.0,-6.12323399573677E-017));
#219=DIRECTION('',(1.0,0.0,0.0));
#220=SURFACE_STYLE_FILL_AREA(#315);
#221=ORIENTED_EDGE('',*,*,#309,.T.);
#222=ORIENTED_EDGE('',*,*,#314,.T.);
#223=ORIENTED_EDGE('',*,*,#311,.T.);
#224=CARTESIAN_POINT('',(17.0,-2.27373675443232E-013,-2.08189955855049E-015));
#225=DIRECTION('',(-1.0,1.49975978266186E-032,2.44929359829471E-016));
#226=DIRECTION('',(1.49975978266186E-032,1.0,0.0));
#227=SURFACE_STYLE_FILL_AREA(#316);
#228=ORIENTED_EDGE('',*,*,#307,.T.);
#229=ORIENTED_EDGE('',*,*,#317,.F.);
#230=ORIENTED_EDGE('',*,*,#318,.T.);
#231=ORIENTED_EDGE('',*,*,#319,.T.);
#232=ORIENTED_EDGE('',*,*,#320,.T.);
#233=ORIENTED_EDGE('',*,*,#321,.F.);
#234=ORIENTED_EDGE('',*,*,#322,.F.);
#235=ORIENTED_EDGE('',*,*,#302,.T.);
#236=CARTESIAN_POINT('',(-19.0,-2.27373675443232E-013,2.32682891837998E-015));
#237=DIRECTION('',(1.0,3.67335203465356E-048,-2.44929359829471E-016));
#238=DIRECTION('',(0.0,1.0,1.49975978266186E-032));
#239=SURFACE_STYLE_FILL_AREA(#323);
#240=ORIENTED_EDGE('',*,*,#303,.T.);
#241=ORIENTED_EDGE('',*,*,#322,.T.);
#242=ORIENTED_EDGE('',*,*,#324,.T.);
#243=ORIENTED_EDGE('',*,*,#290,.F.);
#244=CARTESIAN_POINT('',(1.78798432675514E-014,-2.27373675443232E-013,73.0));
#245=DIRECTION('',(0.0,1.0,-6.12323399573677E-017));
#246=DIRECTION('',(1.0,0.0,0.0));
#247=SURFACE_STYLE_FILL_AREA(#325);
#248=ORIENTED_EDGE('',*,*,#326,.T.);
#249=ORIENTED_EDGE('',*,*,#291,.F.);
#250=ORIENTED_EDGE('',*,*,#324,.F.);
#251=ORIENTED_EDGE('',*,*,#321,.T.);
#252=CARTESIAN_POINT('',(1.95943487863577E-014,-2.27373675443232E-013,80.0));
#253=DIRECTION('',(1.49975978266186E-032,6.12323399573678E-017,1.0));
#254=DIRECTION('',(1.0,-2.44929359829471E-016,0.0));
#255=SURFACE_STYLE_FILL_AREA(#327);
#256=ORIENTED_EDGE('',*,*,#328,.F.);
#257=ORIENTED_EDGE('',*,*,#292,.F.);
#258=ORIENTED_EDGE('',*,*,#326,.F.);
#259=ORIENTED_EDGE('',*,*,#320,.F.);
#260=CARTESIAN_POINT('',(1.95943487863577E-014,-13.47951647286,80.0));
#261=DIRECTION('',(1.73191211247099E-016,-0.707106781186548,0.707106781186548));
#262=DIRECTION('',(-1.0,-2.44929359829471E-016,0.0));
#263=SURFACE_STYLE_FILL_AREA(#329);
#264=ORIENTED_EDGE('',*,*,#330,.F.);
#265=ORIENTED_EDGE('',*,*,#293,.T.);
#266=ORIENTED_EDGE('',*,*,#328,.T.);
#267=ORIENTED_EDGE('',*,*,#319,.F.);
#268=CARTESIAN_POINT('',(1.62068023954847E-029,-80.0000000000003,4.89858719658942E-015));
#269=DIRECTION('',(0.0,1.0,-6.12323399573677E-017));
#270=DIRECTION('',(1.0,0.0,0.0));
#271=SURFACE_STYLE_FILL_AREA(#331);
#272=ORIENTED_EDGE('',*,*,#332,.T.);
#273=ORIENTED_EDGE('',*,*,#294,.T.);
#274=ORIENTED_EDGE('',*,*,#330,.T.);
#275=ORIENTED_EDGE('',*,*,#318,.F.);
#276=CARTESIAN_POINT('',(1.5017125206215E-029,-73.0000000000002,4.46996081688785E-015));
#277=DIRECTION('',(1.49975978266186E-032,6.12323399573678E-017,1.0));
#278=DIRECTION('',(1.0,-2.44929359829471E-016,0.0));
#279=SURFACE_STYLE_FILL_AREA(#333);
#280=ORIENTED_EDGE('',*,*,#306,.F.);
#281=ORIENTED_EDGE('',*,*,#295,.F.);
#282=ORIENTED_EDGE('',*,*,#332,.F.);
#283=ORIENTED_EDGE('',*,*,#317,.T.);
#284=CARTESIAN_POINT('',(14.55,-76.0000000000002,2.87179674400055E-015));
#285=DIRECTION('',(0.0,1.0,-6.12323399573677E-017));
#286=DIRECTION('',(1.0,0.0,0.0));
#287=SURFACE_STYLE_FILL_AREA(#334);
#288=FILL_AREA_STYLE('',(#335));
#289=EDGE_CURVE('',#336,#337,#338,.T.);
#290=EDGE_CURVE('',#336,#339,#340,.T.);
#291=EDGE_CURVE('',#339,#341,#342,.T.);
#292=EDGE_CURVE('',#341,#343,#344,.T.);
#293=EDGE_CURVE('',#345,#343,#346,.T.);
#294=EDGE_CURVE('',#347,#345,#348,.T.);
#295=EDGE_CURVE('',#347,#349,#350,.T.);
#296=EDGE_CURVE('',#351,#349,#352,.T.);
#297=EDGE_CURVE('',#351,#353,#354,.T.);
#298=EDGE_CURVE('',#353,#355,#356,.T.);
#299=EDGE_CURVE('',#355,#337,#357,.T.);
#300=FILL_AREA_STYLE('',(#358));
#301=EDGE_CURVE('',#359,#337,#360,.T.);
#302=EDGE_CURVE('',#361,#359,#362,.T.);
#303=EDGE_CURVE('',#336,#361,#363,.T.);
#304=FILL_AREA_STYLE('',(#364));
#305=EDGE_CURVE('',#351,#365,#366,.T.);
#306=EDGE_CURVE('',#349,#367,#368,.T.);
#307=EDGE_CURVE('',#359,#367,#369,.T.);
#308=EDGE_CURVE('',#355,#370,#371,.T.);
#309=EDGE_CURVE('',#365,#370,#372,.T.);
#310=FILL_AREA_STYLE('',(#373));
#311=EDGE_CURVE('',#374,#365,#375,.T.);
#312=EDGE_CURVE('',#353,#374,#376,.T.);
#313=FILL_AREA_STYLE('',(#377));
#314=EDGE_CURVE('',#370,#374,#378,.T.);
#315=FILL_AREA_STYLE('',(#379));
#316=FILL_AREA_STYLE('',(#380));
#317=EDGE_CURVE('',#381,#367,#382,.T.);
#318=EDGE_CURVE('',#381,#383,#384,.T.);
#319=EDGE_CURVE('',#383,#385,#386,.T.);
#320=EDGE_CURVE('',#385,#387,#388,.T.);
#321=EDGE_CURVE('',#389,#387,#390,.T.);
#322=EDGE_CURVE('',#361,#389,#391,.T.);
#323=FILL_AREA_STYLE('',(#392));
#324=EDGE_CURVE('',#389,#339,#393,.T.);
#325=FILL_AREA_STYLE('',(#394));
#326=EDGE_CURVE('',#387,#341,#395,.T.);
#327=FILL_AREA_STYLE('',(#396));
#328=EDGE_CURVE('',#343,#385,#397,.T.);
#329=FILL_AREA_STYLE('',(#398));
#330=EDGE_CURVE('',#345,#383,#399,.T.);
#331=FILL_AREA_STYLE('',(#400));
#332=EDGE_CURVE('',#381,#347,#401,.T.);
#333=FILL_AREA_STYLE('',(#402));
#334=FILL_AREA_STYLE('',(#403));
#335=FILL_AREA_STYLE_COLOUR('',#404);
#336=VERTEX_POINT('',#405);
#337=VERTEX_POINT('',#406);
#338=LINE('',#407,#408);
#339=VERTEX_POINT('',#409);
#340=LINE('',#410,#411);
#341=VERTEX_POINT('',#412);
#342=LINE('',#413,#414);
#343=VERTEX_POINT('',#415);
#344=LINE('',#416,#417);
#345=VERTEX_POINT('',#418);
#346=LINE('',#419,#420);
#347=VERTEX_POINT('',#421);
#348=LINE('',#422,#423);
#349=VERTEX_POINT('',#424);
#350=LINE('',#425,#426);
#351=VERTEX_POINT('',#427);
#352=LINE('',#428,#429);
#353=VERTEX_POINT('',#430);
#354=LINE('',#431,#432);
#355=VERTEX_POINT('',#433);
#356=LINE('',#434,#435);
#357=LINE('',#436,#437);
#358=FILL_AREA_STYLE_COLOUR('',#438);
#359=VERTEX_POINT('',#439);
#360=LINE('',#440,#441);
#361=VERTEX_POINT('',#442);
#362=LINE('',#443,#444);
#363=LINE('',#445,#446);
#364=FILL_AREA_STYLE_COLOUR('',#447);
#365=VERTEX_POINT('',#448);
#366=LINE('',#449,#450);
#367=VERTEX_POINT('',#451);
#368=LINE('',#452,#453);
#369=LINE('',#454,#455);
#370=VERTEX_POINT('',#456);
#371=LINE('',#457,#458);
#372=LINE('',#459,#460);
#373=FILL_AREA_STYLE_COLOUR('',#461);
#374=VERTEX_POINT('',#462);
#375=LINE('',#463,#464);
#376=LINE('',#465,#466);
#377=FILL_AREA_STYLE_COLOUR('',#467);
#378=LINE('',#468,#469);
#379=FILL_AREA_STYLE_COLOUR('',#470);
#380=FILL_AREA_STYLE_COLOUR('',#471);
#381=VERTEX_POINT('',#472);
#382=LINE('',#473,#474);
#383=VERTEX_POINT('',#475);
#384=LINE('',#476,#477);
#385=VERTEX_POINT('',#478);
#386=LINE('',#479,#480);
#387=VERTEX_POINT('',#481);
#388=LINE('',#482,#483);
#389=VERTEX_POINT('',#484);
#390=LINE('',#485,#486);
#391=LINE('',#487,#488);
#392=FILL_AREA_STYLE_COLOUR('',#489);
#393=LINE('',#490,#491);
#394=FILL_AREA_STYLE_COLOUR('',#492);
#395=LINE('',#493,#494);
#396=FILL_AREA_STYLE_COLOUR('',#495);
#397=LINE('',#496,#497);
#398=FILL_AREA_STYLE_COLOUR('',#498);
#399=LINE('',#499,#500);
#400=FILL_AREA_STYLE_COLOUR('',#501);
#401=LINE('',#502,#503);
#402=FILL_AREA_STYLE_COLOUR('',#504);
#403=FILL_AREA_STYLE_COLOUR('',#505);
#404=COLOUR_RGB('',0.61176472902298,0.61176472902298,0.650980412960052);
#405=CARTESIAN_POINT('',(19.0,-2.27373675443232E-013,76.0));
#406=CARTESIAN_POINT('',(19.0,-7.58002153625012,76.0));
#407=CARTESIAN_POINT('',(19.0,-2.27373675443232E-013,76.0));
#408=VECTOR('',#506,7.58002153624989);
#409=CARTESIAN_POINT('',(19.0,-2.27373675443232E-013,80.0));
#410=CARTESIAN_POINT('',(19.0,-2.27373675443232E-013,76.0));
#411=VECTOR('',#507,4.0);
#412=CARTESIAN_POINT('',(19.0,-13.47951647286,80.0));
#413=CARTESIAN_POINT('',(19.0,-2.27373675443232E-013,80.0));
#414=VECTOR('',#508,13.4795164728598);
#415=CARTESIAN_POINT('',(19.0,-80.0000000000003,13.47951647286));
#416=CARTESIAN_POINT('',(19.0,-13.47951647286,80.0));
#417=VECTOR('',#509,94.0741699796976);
#418=CARTESIAN_POINT('',(19.0,-80.0000000000003,2.57175827820945E-015));
#419=CARTESIAN_POINT('',(19.0,-80.0000000000003,2.57175827820945E-015));
#420=VECTOR('',#510,13.47951647286);
#421=CARTESIAN_POINT('',(19.0,-76.0000000000002,2.32682891837998E-015));
#422=CARTESIAN_POINT('',(19.0,-76.0000000000002,2.32682891837998E-015));
#423=VECTOR('',#511,4.0);
#424=CARTESIAN_POINT('',(19.0,-76.0000000000002,7.58002153625012));
#425=CARTESIAN_POINT('',(19.0,-76.0000000000002,2.32682891837998E-015));
#426=VECTOR('',#512,7.58002153625011);
#427=CARTESIAN_POINT('',(19.0,-75.0800215362501,8.50000000000001));
#428=CARTESIAN_POINT('',(19.0,-75.0800215362501,8.50000000000001));
#429=VECTOR('',#513,1.30104602052642);
#430=CARTESIAN_POINT('',(19.0,-8.50000000000023,8.5));
#431=CARTESIAN_POINT('',(19.0,-75.0800215362501,8.50000000000001));
#432=VECTOR('',#514,66.5800215362499);
#433=CARTESIAN_POINT('',(19.0,-8.50000000000023,75.0800215362501));
#434=CARTESIAN_POINT('',(19.0,-8.50000000000023,8.5));
#435=VECTOR('',#515,66.5800215362501);
#436=CARTESIAN_POINT('',(19.0,-8.50000000000023,75.0800215362501));
#437=VECTOR('',#516,1.30104602052642);
#438=COLOUR_RGB('',0.61176472902298,0.61176472902298,0.650980412960052);
#439=CARTESIAN_POINT('',(-19.0,-7.58002153625012,76.0));
#440=CARTESIAN_POINT('',(-19.0,-7.58002153625012,76.0));
#441=VECTOR('',#517,38.0);
#442=CARTESIAN_POINT('',(-19.0,-2.27373675443232E-013,76.0));
#443=CARTESIAN_POINT('',(-19.0,-2.27373675443232E-013,76.0));
#444=VECTOR('',#518,7.58002153624989);
#445=CARTESIAN_POINT('',(19.0,-2.27373675443232E-013,76.0));
#446=VECTOR('',#519,38.0);
#447=COLOUR_RGB('',0.61176472902298,0.61176472902298,0.650980412960052);
#448=CARTESIAN_POINT('',(17.0,-75.0800215362501,8.50000000000001));
#449=CARTESIAN_POINT('',(19.0,-75.0800215362501,8.50000000000001));
#450=VECTOR('',#520,2.0);
#451=CARTESIAN_POINT('',(-19.0,-76.0000000000002,7.58002153625012));
#452=CARTESIAN_POINT('',(19.0,-76.0000000000002,7.58002153625012));
#453=VECTOR('',#521,38.0);
#454=CARTESIAN_POINT('',(-19.0,-7.58002153625012,76.0));
#455=VECTOR('',#522,96.7604614807103);
#456=CARTESIAN_POINT('',(17.0,-8.50000000000023,75.0800215362501));
#457=CARTESIAN_POINT('',(19.0,-8.50000000000023,75.0800215362501));
#458=VECTOR('',#523,2.0);
#459=CARTESIAN_POINT('',(17.0,-75.0800215362501,8.50000000000001));
#460=VECTOR('',#524,94.1583694396575);
#461=COLOUR_RGB('',0.61176472902298,0.61176472902298,0.650980412960052);
#462=CARTESIAN_POINT('',(17.0,-8.50000000000023,8.5));
#463=CARTESIAN_POINT('',(17.0,-8.50000000000023,8.5));
#464=VECTOR('',#525,66.5800215362499);
#465=CARTESIAN_POINT('',(19.0,-8.50000000000023,8.5));
#466=VECTOR('',#526,2.0);
#467=COLOUR_RGB('',0.61176472902298,0.61176472902298,0.650980412960052);
#468=CARTESIAN_POINT('',(17.0,-8.50000000000023,75.0800215362501));
#469=VECTOR('',#527,66.5800215362501);
#470=COLOUR_RGB('',0.61176472902298,0.61176472902298,0.650980412960052);
#471=COLOUR_RGB('',0.61176472902298,0.61176472902298,0.650980412960052);
#472=CARTESIAN_POINT('',(-19.0,-76.0000000000002,6.98048675513992E-015));
#473=CARTESIAN_POINT('',(-19.0,-76.0000000000002,6.98048675513992E-015));
#474=VECTOR('',#528,7.58002153625012);
#475=CARTESIAN_POINT('',(-19.0,-80.0000000000003,7.22541611496939E-015));
#476=CARTESIAN_POINT('',(-19.0,-76.0000000000002,6.98048675513992E-015));
#477=VECTOR('',#529,4.0);
#478=CARTESIAN_POINT('',(-19.0,-80.0000000000003,13.4795164728601));
#479=CARTESIAN_POINT('',(-19.0,-80.0000000000003,7.22541611496939E-015));
#480=VECTOR('',#530,13.47951647286);
#481=CARTESIAN_POINT('',(-19.0,-13.47951647286,80.0));
#482=CARTESIAN_POINT('',(-19.0,-80.0000000000003,13.4795164728601));
#483=VECTOR('',#531,94.0741699796976);
#484=CARTESIAN_POINT('',(-19.0,-2.27373675443232E-013,80.0));
#485=CARTESIAN_POINT('',(-19.0,-2.27373675443232E-013,80.0));
#486=VECTOR('',#532,13.4795164728598);
#487=CARTESIAN_POINT('',(-19.0,-2.27373675443232E-013,76.0));
#488=VECTOR('',#533,4.0);
#489=COLOUR_RGB('',0.61176472902298,0.61176472902298,0.650980412960052);
#490=CARTESIAN_POINT('',(-19.0,-2.27373675443232E-013,80.0));
#491=VECTOR('',#534,38.0);
#492=COLOUR_RGB('',0.61176472902298,0.61176472902298,0.650980412960052);
#493=CARTESIAN_POINT('',(-19.0,-13.47951647286,80.0));
#494=VECTOR('',#535,38.0);
#495=COLOUR_RGB('',0.61176472902298,0.61176472902298,0.650980412960052);
#496=CARTESIAN_POINT('',(19.0,-80.0000000000003,13.47951647286));
#497=VECTOR('',#536,38.0);
#498=COLOUR_RGB('',0.61176472902298,0.61176472902298,0.650980412960052);
#499=CARTESIAN_POINT('',(19.0,-80.0000000000003,2.57175827820945E-015));
#500=VECTOR('',#537,38.0);
#501=COLOUR_RGB('',0.61176472902298,0.61176472902298,0.650980412960052);
#502=CARTESIAN_POINT('',(-19.0,-76.0000000000002,6.98048675513992E-015));
#503=VECTOR('',#538,38.0);
#504=COLOUR_RGB('',0.61176472902298,0.61176472902298,0.650980412960052);
#505=COLOUR_RGB('',0.61176472902298,0.61176472902298,0.650980412960052);
#506=DIRECTION('',(0.0,-1.0,6.12323399573677E-017));
#507=DIRECTION('',(2.44929359829471E-016,6.12323399573677E-017,1.0));
#508=DIRECTION('',(0.0,-1.0,6.12323399573677E-017));
#509=DIRECTION('',(-1.73191211247099E-016,-0.707106781186548,-0.707106781186548));
#510=DIRECTION('',(2.44929359829471E-016,6.12323399573677E-017,1.0));
#511=DIRECTION('',(0.0,-1.0,6.12323399573677E-017));
#512=DIRECTION('',(2.44929359829471E-016,6.12323399573677E-017,1.0));
#513=DIRECTION('',(-1.73191211247111E-016,-0.707106781186498,-0.707106781186597));
#514=DIRECTION('',(0.0,1.0,-6.12323399573677E-017));
#515=DIRECTION('',(2.44929359829471E-016,6.12323399573677E-017,1.0));
#516=DIRECTION('',(1.73191211247099E-016,0.707106781186548,0.707106781186547));
#517=DIRECTION('',(1.0,-1.49975978266186E-032,-2.44929359829471E-016));
#518=DIRECTION('',(0.0,-1.0,6.12323399573677E-017));
#519=DIRECTION('',(-1.0,1.49975978266186E-032,2.44929359829471E-016));
#520=DIRECTION('',(-1.0,1.49975978266186E-032,2.44929359829471E-016));
#521=DIRECTION('',(-1.0,1.49975978266186E-032,2.44929359829471E-016));
#522=DIRECTION('',(-1.73191211247099E-016,-0.707106781186548,-0.707106781186548));
#523=DIRECTION('',(-1.0,1.49975978266186E-032,2.44929359829471E-016));
#524=DIRECTION('',(1.73191211247099E-016,0.707106781186547,0.707106781186547));
#525=DIRECTION('',(0.0,-1.0,6.12323399573677E-017));
#526=DIRECTION('',(-1.0,1.49975978266186E-032,2.44929359829471E-016));
#527=DIRECTION('',(-2.44929359829471E-016,-6.12323399573677E-017,-1.0));
#528=DIRECTION('',(2.44929359829471E-016,6.12323399573677E-017,1.0));
#529=DIRECTION('',(0.0,-1.0,6.12323399573677E-017));
#530=DIRECTION('',(2.44929359829471E-016,6.12323399573677E-017,1.0));
#531=DIRECTION('',(1.73191211247099E-016,0.707106781186548,0.707106781186548));
#532=DIRECTION('',(0.0,-1.0,6.12323399573677E-017));
#533=DIRECTION('',(2.44929359829471E-016,6.12323399573677E-017,1.0));
#534=DIRECTION('',(1.0,-1.49975978266186E-032,-2.44929359829471E-016));
#535=DIRECTION('',(1.0,-1.49975978266186E-032,-2.44929359829471E-016));
#536=DIRECTION('',(-1.0,1.49975978266186E-032,2.44929359829471E-016));
#537=DIRECTION('',(-1.0,1.49975978266186E-032,2.44929359829471E-016));
#538=DIRECTION('',(1.0,-1.49975978266186E-032,-2.44929359829471E-016));
ENDSEC;
END-ISO-10303-21;
