ISO-10303-21;
HEADER;
FILE_DESCRIPTION(('STEP AP214'),'1');
FILE_NAME('cctmp_D49A4AB7-96B8-4E8B-B006-74BF409FA494_2020_1_20_8_11_15_889..stp','2020-01-20T07:11:15',('Bosch Rexroth AG'),('CADClick - www.CADClick.com'),'Spatial InterOp 3D',' ','unknown authorization - (Healing Option Enabled)');
FILE_SCHEMA(('AUTOMOTIVE_DESIGN'));
ENDSEC;
DATA;
#1=MECHANICAL_DESIGN_GEOMETRIC_PRESENTATION_REPRESENTATION(' ',(#10,#11,#12,#13,#14,#15,#16,#17,#18,#19,#20,#21,#22,#23,#24,#25),#6);
#2=PRODUCT_DEFINITION_CONTEXT('',#26,'design');
#3=APPLICATION_PROTOCOL_DEFINITION('INTERNATIONAL STANDARD','automotive_design',1994,#26);
#4=PRODUCT_CATEGORY_RELATIONSHIP('NONE','NONE',#27,#28);
#5=SHAPE_DEFINITION_REPRESENTATION(#29,#30);
#6= (GEOMETRIC_REPRESENTATION_CONTEXT(3)GLOBAL_UNCERTAINTY_ASSIGNED_CONTEXT((#33))GLOBAL_UNIT_ASSIGNED_CONTEXT((#35,#36,#37))REPRESENTATION_CONTEXT('NONE','WORKSPACE'));
#10=STYLED_ITEM('',(#39),#40);
#11=STYLED_ITEM('',(#41),#42);
#12=STYLED_ITEM('',(#43),#44);
#13=STYLED_ITEM('',(#45),#46);
#14=STYLED_ITEM('',(#47),#48);
#15=STYLED_ITEM('',(#49),#50);
#16=STYLED_ITEM('',(#51),#52);
#17=STYLED_ITEM('',(#53),#54);
#18=STYLED_ITEM('',(#55),#56);
#19=STYLED_ITEM('',(#57),#58);
#20=STYLED_ITEM('',(#59),#60);
#21=STYLED_ITEM('',(#61),#62);
#22=STYLED_ITEM('',(#63),#64);
#23=STYLED_ITEM('',(#65),#66);
#24=STYLED_ITEM('',(#67),#68);
#25=STYLED_ITEM('',(#69),#70);
#26=APPLICATION_CONTEXT(' ');
#27=PRODUCT_CATEGORY('part','NONE');
#28=PRODUCT_RELATED_PRODUCT_CATEGORY('detail',' ',(#71));
#29=PRODUCT_DEFINITION_SHAPE('NONE','NONE',#72);
#30=ADVANCED_BREP_SHAPE_REPRESENTATION('2020_01_20__08-11-15-889',(#70,#73),#6);
#33=UNCERTAINTY_MEASURE_WITH_UNIT(LENGTH_MEASURE(1.0E-006),#35,'','');
#35= (CONVERSION_BASED_UNIT('MILLIMETRE',#76)LENGTH_UNIT()NAMED_UNIT(#79));
#36= (NAMED_UNIT(#81)PLANE_ANGLE_UNIT()SI_UNIT($,.RADIAN.));
#37= (NAMED_UNIT(#81)SOLID_ANGLE_UNIT()SI_UNIT($,.STERADIAN.));
#39=PRESENTATION_STYLE_ASSIGNMENT((#87));
#40=ADVANCED_FACE('',(#88),#89,.F.);
#41=PRESENTATION_STYLE_ASSIGNMENT((#90));
#42=ADVANCED_FACE('',(#91),#92,.F.);
#43=PRESENTATION_STYLE_ASSIGNMENT((#93));
#44=ADVANCED_FACE('',(#94),#95,.F.);
#45=PRESENTATION_STYLE_ASSIGNMENT((#96));
#46=ADVANCED_FACE('',(#97),#98,.T.);
#47=PRESENTATION_STYLE_ASSIGNMENT((#99));
#48=ADVANCED_FACE('',(#100),#101,.T.);
#49=PRESENTATION_STYLE_ASSIGNMENT((#102));
#50=ADVANCED_FACE('',(#103),#104,.F.);
#51=PRESENTATION_STYLE_ASSIGNMENT((#105));
#52=ADVANCED_FACE('',(#106),#107,.F.);
#53=PRESENTATION_STYLE_ASSIGNMENT((#108));
#54=ADVANCED_FACE('',(#109),#110,.F.);
#55=PRESENTATION_STYLE_ASSIGNMENT((#111));
#56=ADVANCED_FACE('',(#112),#113,.T.);
#57=PRESENTATION_STYLE_ASSIGNMENT((#114));
#58=ADVANCED_FACE('',(#115),#116,.T.);
#59=PRESENTATION_STYLE_ASSIGNMENT((#117));
#60=ADVANCED_FACE('',(#118),#119,.T.);
#61=PRESENTATION_STYLE_ASSIGNMENT((#120));
#62=ADVANCED_FACE('',(#121),#122,.F.);
#63=PRESENTATION_STYLE_ASSIGNMENT((#123));
#64=ADVANCED_FACE('',(#124),#125,.T.);
#65=PRESENTATION_STYLE_ASSIGNMENT((#126));
#66=ADVANCED_FACE('',(#127),#128,.T.);
#67=PRESENTATION_STYLE_ASSIGNMENT((#129));
#68=ADVANCED_FACE('',(#130),#131,.F.);
#69=PRESENTATION_STYLE_ASSIGNMENT((#132));
#70=MANIFOLD_SOLID_BREP('2020_01_20__08-11-15-889',#133);
#71=PRODUCT('2020_01_20__08-11-15-889','','PART--DESC',(#134));
#72=PRODUCT_DEFINITION('','NONE',#135,#2);
#73=AXIS2_PLACEMENT_3D('',#136,#137,#138);
#76=LENGTH_MEASURE_WITH_UNIT(LENGTH_MEASURE(1.0),#139);
#79=DIMENSIONAL_EXPONENTS(1.0,0.0,0.0,0.0,0.0,0.0,0.0);
#81=DIMENSIONAL_EXPONENTS(0.0,0.0,0.0,0.0,0.0,0.0,0.0);
#87=SURFACE_STYLE_USAGE(.BOTH.,#140);
#88=FACE_OUTER_BOUND('',#141,.T.);
#89=PLANE('',#142);
#90=SURFACE_STYLE_USAGE(.BOTH.,#143);
#91=FACE_OUTER_BOUND('',#144,.T.);
#92=PLANE('',#145);
#93=SURFACE_STYLE_USAGE(.BOTH.,#146);
#94=FACE_OUTER_BOUND('',#147,.T.);
#95=PLANE('',#148);
#96=SURFACE_STYLE_USAGE(.BOTH.,#149);
#97=FACE_OUTER_BOUND('',#150,.T.);
#98=PLANE('',#151);
#99=SURFACE_STYLE_USAGE(.BOTH.,#152);
#100=FACE_OUTER_BOUND('',#153,.T.);
#101=PLANE('',#154);
#102=SURFACE_STYLE_USAGE(.BOTH.,#155);
#103=FACE_OUTER_BOUND('',#156,.T.);
#104=PLANE('',#157);
#105=SURFACE_STYLE_USAGE(.BOTH.,#158);
#106=FACE_OUTER_BOUND('',#159,.T.);
#107=PLANE('',#160);
#108=SURFACE_STYLE_USAGE(.BOTH.,#161);
#109=FACE_OUTER_BOUND('',#162,.T.);
#110=PLANE('',#163);
#111=SURFACE_STYLE_USAGE(.BOTH.,#164);
#112=FACE_OUTER_BOUND('',#165,.T.);
#113=PLANE('',#166);
#114=SURFACE_STYLE_USAGE(.BOTH.,#167);
#115=FACE_OUTER_BOUND('',#168,.T.);
#116=PLANE('',#169);
#117=SURFACE_STYLE_USAGE(.BOTH.,#170);
#118=FACE_OUTER_BOUND('',#171,.T.);
#119=PLANE('',#172);
#120=SURFACE_STYLE_USAGE(.BOTH.,#173);
#121=FACE_OUTER_BOUND('',#174,.T.);
#122=PLANE('',#175);
#123=SURFACE_STYLE_USAGE(.BOTH.,#176);
#124=FACE_OUTER_BOUND('',#177,.T.);
#125=PLANE('',#178);
#126=SURFACE_STYLE_USAGE(.BOTH.,#179);
#127=FACE_OUTER_BOUND('',#180,.T.);
#128=PLANE('',#181);
#129=SURFACE_STYLE_USAGE(.BOTH.,#182);
#130=FACE_OUTER_BOUND('',#183,.T.);
#131=PLANE('',#184);
#132=SURFACE_STYLE_USAGE(.BOTH.,#185);
#133=CLOSED_SHELL('',(#40,#42,#44,#46,#48,#50,#52,#54,#56,#58,#60,#62,#64,#66,#68));
#134=PRODUCT_CONTEXT('',#26,'mechanical');
#135=PRODUCT_DEFINITION_FORMATION_WITH_SPECIFIED_SOURCE(' ','NONE',#71,.NOT_KNOWN.);
#136=CARTESIAN_POINT('',(0.0,0.0,0.0));
#137=DIRECTION('',(0.0,0.0,1.0));
#138=DIRECTION('',(1.0,0.0,0.0));
#139= (NAMED_UNIT(#79)LENGTH_UNIT()SI_UNIT(.MILLI.,.METRE.));
#140=SURFACE_SIDE_STYLE('',(#187));
#141=EDGE_LOOP('',(#188,#189,#190,#191,#192,#193,#194,#195));
#142=AXIS2_PLACEMENT_3D('',#196,#197,#198);
#143=SURFACE_SIDE_STYLE('',(#199));
#144=EDGE_LOOP('',(#200,#201,#202,#203,#204,#205));
#145=AXIS2_PLACEMENT_3D('',#206,#207,#208);
#146=SURFACE_SIDE_STYLE('',(#209));
#147=EDGE_LOOP('',(#210,#211,#212,#213,#214,#215));
#148=AXIS2_PLACEMENT_3D('',#216,#217,#218);
#149=SURFACE_SIDE_STYLE('',(#219));
#150=EDGE_LOOP('',(#220,#221,#222));
#151=AXIS2_PLACEMENT_3D('',#223,#224,#225);
#152=SURFACE_SIDE_STYLE('',(#226));
#153=EDGE_LOOP('',(#227,#228,#229));
#154=AXIS2_PLACEMENT_3D('',#230,#231,#232);
#155=SURFACE_SIDE_STYLE('',(#233));
#156=EDGE_LOOP('',(#234,#235,#236,#237,#238));
#157=AXIS2_PLACEMENT_3D('',#239,#240,#241);
#158=SURFACE_SIDE_STYLE('',(#242));
#159=EDGE_LOOP('',(#243,#244,#245));
#160=AXIS2_PLACEMENT_3D('',#246,#247,#248);
#161=SURFACE_SIDE_STYLE('',(#249));
#162=EDGE_LOOP('',(#250,#251,#252,#253,#254));
#163=AXIS2_PLACEMENT_3D('',#255,#256,#257);
#164=SURFACE_SIDE_STYLE('',(#258));
#165=EDGE_LOOP('',(#259,#260,#261,#262,#263,#264,#265,#266,#267));
#166=AXIS2_PLACEMENT_3D('',#268,#269,#270);
#167=SURFACE_SIDE_STYLE('',(#271));
#168=EDGE_LOOP('',(#272,#273,#274,#275));
#169=AXIS2_PLACEMENT_3D('',#276,#277,#278);
#170=SURFACE_SIDE_STYLE('',(#279));
#171=EDGE_LOOP('',(#280,#281,#282,#283));
#172=AXIS2_PLACEMENT_3D('',#284,#285,#286);
#173=SURFACE_SIDE_STYLE('',(#287));
#174=EDGE_LOOP('',(#288,#289,#290,#291));
#175=AXIS2_PLACEMENT_3D('',#292,#293,#294);
#176=SURFACE_SIDE_STYLE('',(#295));
#177=EDGE_LOOP('',(#296,#297,#298,#299));
#178=AXIS2_PLACEMENT_3D('',#300,#301,#302);
#179=SURFACE_SIDE_STYLE('',(#303));
#180=EDGE_LOOP('',(#304,#305,#306,#307));
#181=AXIS2_PLACEMENT_3D('',#308,#309,#310);
#182=SURFACE_SIDE_STYLE('',(#311));
#183=EDGE_LOOP('',(#312,#313,#314,#315,#316,#317));
#184=AXIS2_PLACEMENT_3D('',#318,#319,#320);
#185=SURFACE_SIDE_STYLE('',(#321));
#187=SURFACE_STYLE_FILL_AREA(#322);
#188=ORIENTED_EDGE('',*,*,#323,.T.);
#189=ORIENTED_EDGE('',*,*,#324,.F.);
#190=ORIENTED_EDGE('',*,*,#325,.F.);
#191=ORIENTED_EDGE('',*,*,#326,.F.);
#192=ORIENTED_EDGE('',*,*,#327,.T.);
#193=ORIENTED_EDGE('',*,*,#328,.F.);
#194=ORIENTED_EDGE('',*,*,#329,.F.);
#195=ORIENTED_EDGE('',*,*,#330,.T.);
#196=CARTESIAN_POINT('',(-8.99999999999999,-40.0,3.55147571752732E-015));
#197=DIRECTION('',(1.0,9.18338008663385E-049,-1.22464679914735E-016));
#198=DIRECTION('',(0.0,1.0,7.49879891330929E-033));
#199=SURFACE_STYLE_FILL_AREA(#331);
#200=ORIENTED_EDGE('',*,*,#332,.T.);
#201=ORIENTED_EDGE('',*,*,#323,.F.);
#202=ORIENTED_EDGE('',*,*,#333,.F.);
#203=ORIENTED_EDGE('',*,*,#334,.T.);
#204=ORIENTED_EDGE('',*,*,#335,.T.);
#205=ORIENTED_EDGE('',*,*,#336,.T.);
#206=CARTESIAN_POINT('',(-8.99999999999999,-36.5,4.0));
#207=DIRECTION('',(8.65956056235493E-017,-0.707106781186548,0.707106781186547));
#208=DIRECTION('',(-1.0,-1.22464679914735E-016,0.0));
#209=SURFACE_STYLE_FILL_AREA(#337);
#210=ORIENTED_EDGE('',*,*,#338,.T.);
#211=ORIENTED_EDGE('',*,*,#339,.F.);
#212=ORIENTED_EDGE('',*,*,#340,.F.);
#213=ORIENTED_EDGE('',*,*,#341,.F.);
#214=ORIENTED_EDGE('',*,*,#324,.T.);
#215=ORIENTED_EDGE('',*,*,#332,.F.);
#216=CARTESIAN_POINT('',(-8.99999999999999,-38.0,40.0));
#217=DIRECTION('',(-1.49975978266186E-032,-1.0,-6.12323399573677E-017));
#218=DIRECTION('',(0.0,6.12323399573677E-017,-1.0));
#219=SURFACE_STYLE_FILL_AREA(#342);
#220=ORIENTED_EDGE('',*,*,#343,.T.);
#221=ORIENTED_EDGE('',*,*,#334,.F.);
#222=ORIENTED_EDGE('',*,*,#344,.T.);
#223=CARTESIAN_POINT('',(7.50000000000002,-40.0,1.53080849893419E-015));
#224=DIRECTION('',(1.0,9.18338008663385E-049,-1.22464679914735E-016));
#225=DIRECTION('',(0.0,1.0,7.49879891330929E-033));
#226=SURFACE_STYLE_FILL_AREA(#345);
#227=ORIENTED_EDGE('',*,*,#338,.F.);
#228=ORIENTED_EDGE('',*,*,#336,.F.);
#229=ORIENTED_EDGE('',*,*,#346,.T.);
#230=CARTESIAN_POINT('',(7.50000000000002,-40.0,1.53080849893419E-015));
#231=DIRECTION('',(1.0,9.18338008663385E-049,-1.22464679914735E-016));
#232=DIRECTION('',(0.0,1.0,7.49879891330929E-033));
#233=SURFACE_STYLE_FILL_AREA(#347);
#234=ORIENTED_EDGE('',*,*,#343,.F.);
#235=ORIENTED_EDGE('',*,*,#348,.F.);
#236=ORIENTED_EDGE('',*,*,#349,.F.);
#237=ORIENTED_EDGE('',*,*,#350,.T.);
#238=ORIENTED_EDGE('',*,*,#351,.F.);
#239=CARTESIAN_POINT('',(9.00000000000002,-3.0,36.5));
#240=DIRECTION('',(-1.49975978266186E-032,-1.0,-6.12323399573677E-017));
#241=DIRECTION('',(0.0,6.12323399573677E-017,-1.0));
#242=SURFACE_STYLE_FILL_AREA(#352);
#243=ORIENTED_EDGE('',*,*,#335,.F.);
#244=ORIENTED_EDGE('',*,*,#351,.T.);
#245=ORIENTED_EDGE('',*,*,#353,.T.);
#246=CARTESIAN_POINT('',(7.50000000000002,-40.0,1.53080849893419E-015));
#247=DIRECTION('',(1.0,9.18338008663385E-049,-1.22464679914735E-016));
#248=DIRECTION('',(0.0,1.0,7.49879891330929E-033));
#249=SURFACE_STYLE_FILL_AREA(#354);
#250=ORIENTED_EDGE('',*,*,#346,.F.);
#251=ORIENTED_EDGE('',*,*,#353,.F.);
#252=ORIENTED_EDGE('',*,*,#350,.F.);
#253=ORIENTED_EDGE('',*,*,#355,.F.);
#254=ORIENTED_EDGE('',*,*,#339,.T.);
#255=CARTESIAN_POINT('',(9.00000000000002,-3.0,3.0));
#256=DIRECTION('',(-7.49879891330927E-033,-6.12323399573677E-017,1.0));
#257=DIRECTION('',(1.0,-1.22464679914735E-016,0.0));
#258=SURFACE_STYLE_FILL_AREA(#356);
#259=ORIENTED_EDGE('',*,*,#355,.T.);
#260=ORIENTED_EDGE('',*,*,#349,.T.);
#261=ORIENTED_EDGE('',*,*,#357,.T.);
#262=ORIENTED_EDGE('',*,*,#358,.T.);
#263=ORIENTED_EDGE('',*,*,#359,.T.);
#264=ORIENTED_EDGE('',*,*,#360,.F.);
#265=ORIENTED_EDGE('',*,*,#361,.T.);
#266=ORIENTED_EDGE('',*,*,#362,.T.);
#267=ORIENTED_EDGE('',*,*,#340,.T.);
#268=CARTESIAN_POINT('',(9.00000000000002,-40.0,1.34711147906209E-015));
#269=DIRECTION('',(1.0,9.18338008663385E-049,-1.22464679914735E-016));
#270=DIRECTION('',(0.0,1.0,7.49879891330929E-033));
#271=SURFACE_STYLE_FILL_AREA(#363);
#272=ORIENTED_EDGE('',*,*,#341,.T.);
#273=ORIENTED_EDGE('',*,*,#362,.F.);
#274=ORIENTED_EDGE('',*,*,#364,.F.);
#275=ORIENTED_EDGE('',*,*,#325,.T.);
#276=CARTESIAN_POINT('',(-8.99999999999999,-40.0,3.55147571752732E-015));
#277=DIRECTION('',(-1.22464679914735E-016,6.12323399573677E-017,-1.0));
#278=DIRECTION('',(-1.0,0.0,1.22464679914735E-016));
#279=SURFACE_STYLE_FILL_AREA(#365);
#280=ORIENTED_EDGE('',*,*,#366,.F.);
#281=ORIENTED_EDGE('',*,*,#326,.T.);
#282=ORIENTED_EDGE('',*,*,#364,.T.);
#283=ORIENTED_EDGE('',*,*,#361,.F.);
#284=CARTESIAN_POINT('',(-8.99999999999999,-40.0,40.0));
#285=DIRECTION('',(-1.49975978266186E-032,-1.0,-6.12323399573677E-017));
#286=DIRECTION('',(0.0,6.12323399573677E-017,-1.0));
#287=SURFACE_STYLE_FILL_AREA(#367);
#288=ORIENTED_EDGE('',*,*,#327,.F.);
#289=ORIENTED_EDGE('',*,*,#366,.T.);
#290=ORIENTED_EDGE('',*,*,#360,.T.);
#291=ORIENTED_EDGE('',*,*,#368,.F.);
#292=CARTESIAN_POINT('',(-10.8,-40.0,4.742640687119));
#293=DIRECTION('',(-8.65956056235493E-017,0.707106781186548,-0.707106781186547));
#294=DIRECTION('',(-1.0,0.0,1.22464679914735E-016));
#295=SURFACE_STYLE_FILL_AREA(#369);
#296=ORIENTED_EDGE('',*,*,#368,.T.);
#297=ORIENTED_EDGE('',*,*,#359,.F.);
#298=ORIENTED_EDGE('',*,*,#370,.F.);
#299=ORIENTED_EDGE('',*,*,#328,.T.);
#300=CARTESIAN_POINT('',(-8.99999999999999,-2.44929359829471E-015,40.0));
#301=DIRECTION('',(-7.49879891330927E-033,-6.12323399573677E-017,1.0));
#302=DIRECTION('',(1.0,-1.22464679914735E-016,0.0));
#303=SURFACE_STYLE_FILL_AREA(#371);
#304=ORIENTED_EDGE('',*,*,#372,.T.);
#305=ORIENTED_EDGE('',*,*,#329,.T.);
#306=ORIENTED_EDGE('',*,*,#370,.T.);
#307=ORIENTED_EDGE('',*,*,#358,.F.);
#308=CARTESIAN_POINT('',(-8.99999999999999,6.74891902197835E-032,1.10218211923262E-015));
#309=DIRECTION('',(9.18338008663389E-049,1.0,6.12323399573677E-017));
#310=DIRECTION('',(1.0,0.0,-1.49975978266186E-032));
#311=SURFACE_STYLE_FILL_AREA(#373);
#312=ORIENTED_EDGE('',*,*,#333,.T.);
#313=ORIENTED_EDGE('',*,*,#330,.F.);
#314=ORIENTED_EDGE('',*,*,#372,.F.);
#315=ORIENTED_EDGE('',*,*,#357,.F.);
#316=ORIENTED_EDGE('',*,*,#348,.T.);
#317=ORIENTED_EDGE('',*,*,#344,.F.);
#318=CARTESIAN_POINT('',(-8.99999999999999,-2.32682891837997E-015,38.0));
#319=DIRECTION('',(-7.49879891330927E-033,-6.12323399573677E-017,1.0));
#320=DIRECTION('',(1.0,-1.22464679914735E-016,0.0));
#321=SURFACE_STYLE_FILL_AREA(#374);
#322=FILL_AREA_STYLE('',(#375));
#323=EDGE_CURVE('',#376,#377,#378,.T.);
#324=EDGE_CURVE('',#379,#377,#380,.T.);
#325=EDGE_CURVE('',#381,#379,#382,.T.);
#326=EDGE_CURVE('',#383,#381,#384,.T.);
#327=EDGE_CURVE('',#383,#385,#386,.T.);
#328=EDGE_CURVE('',#387,#385,#388,.T.);
#329=EDGE_CURVE('',#389,#387,#390,.T.);
#330=EDGE_CURVE('',#389,#376,#391,.T.);
#331=FILL_AREA_STYLE('',(#392));
#332=EDGE_CURVE('',#393,#377,#394,.T.);
#333=EDGE_CURVE('',#395,#376,#396,.T.);
#334=EDGE_CURVE('',#395,#397,#398,.T.);
#335=EDGE_CURVE('',#397,#399,#400,.T.);
#336=EDGE_CURVE('',#399,#393,#401,.T.);
#337=FILL_AREA_STYLE('',(#402));
#338=EDGE_CURVE('',#393,#403,#404,.T.);
#339=EDGE_CURVE('',#405,#403,#406,.T.);
#340=EDGE_CURVE('',#407,#405,#408,.T.);
#341=EDGE_CURVE('',#379,#407,#409,.T.);
#342=FILL_AREA_STYLE('',(#410));
#343=EDGE_CURVE('',#411,#397,#412,.T.);
#344=EDGE_CURVE('',#395,#411,#413,.T.);
#345=FILL_AREA_STYLE('',(#414));
#346=EDGE_CURVE('',#399,#403,#415,.T.);
#347=FILL_AREA_STYLE('',(#416));
#348=EDGE_CURVE('',#417,#411,#418,.T.);
#349=EDGE_CURVE('',#419,#417,#420,.T.);
#350=EDGE_CURVE('',#419,#421,#422,.T.);
#351=EDGE_CURVE('',#397,#421,#423,.T.);
#352=FILL_AREA_STYLE('',(#424));
#353=EDGE_CURVE('',#421,#399,#425,.T.);
#354=FILL_AREA_STYLE('',(#426));
#355=EDGE_CURVE('',#405,#419,#427,.T.);
#356=FILL_AREA_STYLE('',(#428));
#357=EDGE_CURVE('',#417,#429,#430,.T.);
#358=EDGE_CURVE('',#429,#431,#432,.T.);
#359=EDGE_CURVE('',#431,#433,#434,.T.);
#360=EDGE_CURVE('',#435,#433,#436,.T.);
#361=EDGE_CURVE('',#435,#437,#438,.T.);
#362=EDGE_CURVE('',#437,#407,#439,.T.);
#363=FILL_AREA_STYLE('',(#440));
#364=EDGE_CURVE('',#381,#437,#441,.T.);
#365=FILL_AREA_STYLE('',(#442));
#366=EDGE_CURVE('',#383,#435,#443,.T.);
#367=FILL_AREA_STYLE('',(#444));
#368=EDGE_CURVE('',#385,#433,#445,.T.);
#369=FILL_AREA_STYLE('',(#446));
#370=EDGE_CURVE('',#387,#431,#447,.T.);
#371=FILL_AREA_STYLE('',(#448));
#372=EDGE_CURVE('',#429,#389,#449,.T.);
#373=FILL_AREA_STYLE('',(#450));
#374=FILL_AREA_STYLE('',(#451));
#375=FILL_AREA_STYLE_COLOUR('',#452);
#376=VERTEX_POINT('',#453);
#377=VERTEX_POINT('',#454);
#378=LINE('',#455,#456);
#379=VERTEX_POINT('',#457);
#380=LINE('',#458,#459);
#381=VERTEX_POINT('',#460);
#382=LINE('',#461,#462);
#383=VERTEX_POINT('',#463);
#384=LINE('',#464,#465);
#385=VERTEX_POINT('',#466);
#386=LINE('',#467,#468);
#387=VERTEX_POINT('',#469);
#388=LINE('',#470,#471);
#389=VERTEX_POINT('',#472);
#390=LINE('',#473,#474);
#391=LINE('',#475,#476);
#392=FILL_AREA_STYLE_COLOUR('',#477);
#393=VERTEX_POINT('',#478);
#394=LINE('',#479,#480);
#395=VERTEX_POINT('',#481);
#396=LINE('',#482,#483);
#397=VERTEX_POINT('',#484);
#398=LINE('',#485,#486);
#399=VERTEX_POINT('',#487);
#400=LINE('',#488,#489);
#401=LINE('',#490,#491);
#402=FILL_AREA_STYLE_COLOUR('',#492);
#403=VERTEX_POINT('',#493);
#404=LINE('',#494,#495);
#405=VERTEX_POINT('',#496);
#406=LINE('',#497,#498);
#407=VERTEX_POINT('',#499);
#408=LINE('',#500,#501);
#409=LINE('',#502,#503);
#410=FILL_AREA_STYLE_COLOUR('',#504);
#411=VERTEX_POINT('',#505);
#412=LINE('',#506,#507);
#413=LINE('',#508,#509);
#414=FILL_AREA_STYLE_COLOUR('',#510);
#415=LINE('',#511,#512);
#416=FILL_AREA_STYLE_COLOUR('',#513);
#417=VERTEX_POINT('',#514);
#418=LINE('',#515,#516);
#419=VERTEX_POINT('',#517);
#420=LINE('',#518,#519);
#421=VERTEX_POINT('',#520);
#422=LINE('',#521,#522);
#423=LINE('',#523,#524);
#424=FILL_AREA_STYLE_COLOUR('',#525);
#425=LINE('',#526,#527);
#426=FILL_AREA_STYLE_COLOUR('',#528);
#427=LINE('',#529,#530);
#428=FILL_AREA_STYLE_COLOUR('',#531);
#429=VERTEX_POINT('',#532);
#430=LINE('',#533,#534);
#431=VERTEX_POINT('',#535);
#432=LINE('',#536,#537);
#433=VERTEX_POINT('',#538);
#434=LINE('',#539,#540);
#435=VERTEX_POINT('',#541);
#436=LINE('',#542,#543);
#437=VERTEX_POINT('',#544);
#438=LINE('',#545,#546);
#439=LINE('',#547,#548);
#440=FILL_AREA_STYLE_COLOUR('',#549);
#441=LINE('',#550,#551);
#442=FILL_AREA_STYLE_COLOUR('',#552);
#443=LINE('',#553,#554);
#444=FILL_AREA_STYLE_COLOUR('',#555);
#445=LINE('',#556,#557);
#446=FILL_AREA_STYLE_COLOUR('',#558);
#447=LINE('',#559,#560);
#448=FILL_AREA_STYLE_COLOUR('',#561);
#449=LINE('',#562,#563);
#450=FILL_AREA_STYLE_COLOUR('',#564);
#451=FILL_AREA_STYLE_COLOUR('',#565);
#452=COLOUR_RGB('',0.61176472902298,0.61176472902298,0.650980412960052);
#453=CARTESIAN_POINT('',(-8.99999999999999,-2.5,38.0));
#454=CARTESIAN_POINT('',(-8.99999999999999,-38.0,2.5));
#455=CARTESIAN_POINT('',(-8.99999999999999,-2.5,38.0));
#456=VECTOR('',#566,50.2045814642449);
#457=CARTESIAN_POINT('',(-8.99999999999999,-38.0,3.42901103761259E-015));
#458=CARTESIAN_POINT('',(-8.99999999999999,-38.0,3.42901103761259E-015));
#459=VECTOR('',#567,2.5);
#460=CARTESIAN_POINT('',(-8.99999999999999,-40.0,3.55147571752732E-015));
#461=CARTESIAN_POINT('',(-8.99999999999999,-40.0,3.55147571752732E-015));
#462=VECTOR('',#568,2.0);
#463=CARTESIAN_POINT('',(-8.99999999999999,-40.0,4.742640687119));
#464=CARTESIAN_POINT('',(-8.99999999999999,-40.0,4.742640687119));
#465=VECTOR('',#569,4.74264068711899);
#466=CARTESIAN_POINT('',(-8.99999999999999,-4.74264068712,40.0));
#467=CARTESIAN_POINT('',(-8.99999999999999,-40.0,4.742640687119));
#468=VECTOR('',#570,49.861435713737);
#469=CARTESIAN_POINT('',(-8.99999999999999,-2.44929359829471E-015,40.0));
#470=CARTESIAN_POINT('',(-8.99999999999999,-2.44929359829471E-015,40.0));
#471=VECTOR('',#571,4.74264068712);
#472=CARTESIAN_POINT('',(-8.99999999999999,-2.32682891837997E-015,38.0));
#473=CARTESIAN_POINT('',(-8.99999999999999,-2.32682891837997E-015,38.0));
#474=VECTOR('',#572,2.0);
#475=CARTESIAN_POINT('',(-8.99999999999999,-2.32682891837997E-015,38.0));
#476=VECTOR('',#573,2.5);
#477=COLOUR_RGB('',0.61176472902298,0.61176472902298,0.650980412960052);
#478=CARTESIAN_POINT('',(7.50000000000002,-38.0,2.5));
#479=CARTESIAN_POINT('',(7.50000000000002,-38.0,2.5));
#480=VECTOR('',#574,16.5);
#481=CARTESIAN_POINT('',(7.50000000000002,-2.5,38.0));
#482=CARTESIAN_POINT('',(7.50000000000002,-2.5,38.0));
#483=VECTOR('',#575,16.5);
#484=CARTESIAN_POINT('',(7.50000000000002,-3.0,37.5));
#485=CARTESIAN_POINT('',(7.50000000000002,-2.5,38.0));
#486=VECTOR('',#576,0.707106781186545);
#487=CARTESIAN_POINT('',(7.50000000000002,-37.5,3.0));
#488=CARTESIAN_POINT('',(7.50000000000002,-3.0,37.5));
#489=VECTOR('',#577,48.7903679018718);
#490=CARTESIAN_POINT('',(7.50000000000002,-37.5,3.0));
#491=VECTOR('',#578,0.707106781186547);
#492=COLOUR_RGB('',0.61176472902298,0.61176472902298,0.650980412960052);
#493=CARTESIAN_POINT('',(7.50000000000002,-38.0,3.0));
#494=CARTESIAN_POINT('',(7.50000000000002,-38.0,2.5));
#495=VECTOR('',#579,0.5);
#496=CARTESIAN_POINT('',(9.00000000000002,-38.0,3.0));
#497=CARTESIAN_POINT('',(9.00000000000002,-38.0,3.0));
#498=VECTOR('',#580,1.5);
#499=CARTESIAN_POINT('',(9.00000000000002,-38.0,1.22464679914735E-015));
#500=CARTESIAN_POINT('',(9.00000000000002,-38.0,1.22464679914735E-015));
#501=VECTOR('',#581,3.0);
#502=CARTESIAN_POINT('',(-8.99999999999999,-38.0,3.42901103761259E-015));
#503=VECTOR('',#582,18.0);
#504=COLOUR_RGB('',0.61176472902298,0.61176472902298,0.650980412960052);
#505=CARTESIAN_POINT('',(7.50000000000002,-3.0,38.0));
#506=CARTESIAN_POINT('',(7.50000000000002,-3.0,38.0));
#507=VECTOR('',#583,0.499999999999998);
#508=CARTESIAN_POINT('',(7.50000000000002,-2.5,38.0));
#509=VECTOR('',#584,0.499999999999998);
#510=COLOUR_RGB('',0.61176472902298,0.61176472902298,0.650980412960052);
#511=CARTESIAN_POINT('',(7.50000000000002,-37.5,3.0));
#512=VECTOR('',#585,0.499999999999998);
#513=COLOUR_RGB('',0.61176472902298,0.61176472902298,0.650980412960052);
#514=CARTESIAN_POINT('',(9.00000000000002,-3.0,38.0));
#515=CARTESIAN_POINT('',(9.00000000000002,-3.0,38.0));
#516=VECTOR('',#586,1.5);
#517=CARTESIAN_POINT('',(9.00000000000002,-3.0,3.0));
#518=CARTESIAN_POINT('',(9.00000000000002,-3.0,3.0));
#519=VECTOR('',#587,35.0);
#520=CARTESIAN_POINT('',(7.50000000000002,-3.0,3.0));
#521=CARTESIAN_POINT('',(9.00000000000002,-3.0,3.0));
#522=VECTOR('',#588,1.5);
#523=CARTESIAN_POINT('',(7.50000000000002,-3.0,37.5));
#524=VECTOR('',#589,34.5);
#525=COLOUR_RGB('',0.61176472902298,0.61176472902298,0.650980412960052);
#526=CARTESIAN_POINT('',(7.50000000000002,-3.0,3.0));
#527=VECTOR('',#590,34.5);
#528=COLOUR_RGB('',0.61176472902298,0.61176472902298,0.650980412960052);
#529=CARTESIAN_POINT('',(9.00000000000002,-38.0,3.0));
#530=VECTOR('',#591,35.0);
#531=COLOUR_RGB('',0.61176472902298,0.61176472902298,0.650980412960052);
#532=CARTESIAN_POINT('',(9.00000000000002,-2.32682891837997E-015,38.0));
#533=CARTESIAN_POINT('',(9.00000000000002,-3.0,38.0));
#534=VECTOR('',#592,3.0);
#535=CARTESIAN_POINT('',(9.00000000000002,-2.44929359829471E-015,40.0));
#536=CARTESIAN_POINT('',(9.00000000000002,-2.32682891837997E-015,38.0));
#537=VECTOR('',#593,2.0);
#538=CARTESIAN_POINT('',(9.00000000000002,-4.74264068712,40.0));
#539=CARTESIAN_POINT('',(9.00000000000002,-2.44929359829471E-015,40.0));
#540=VECTOR('',#594,4.74264068712);
#541=CARTESIAN_POINT('',(9.00000000000002,-40.0,4.742640687119));
#542=CARTESIAN_POINT('',(9.00000000000002,-40.0,4.742640687119));
#543=VECTOR('',#595,49.861435713737);
#544=CARTESIAN_POINT('',(9.00000000000002,-40.0,1.34711147906209E-015));
#545=CARTESIAN_POINT('',(9.00000000000002,-40.0,4.742640687119));
#546=VECTOR('',#596,4.74264068711899);
#547=CARTESIAN_POINT('',(9.00000000000002,-40.0,1.34711147906209E-015));
#548=VECTOR('',#597,2.0);
#549=COLOUR_RGB('',0.61176472902298,0.61176472902298,0.650980412960052);
#550=CARTESIAN_POINT('',(-8.99999999999999,-40.0,3.55147571752732E-015));
#551=VECTOR('',#598,18.0);
#552=COLOUR_RGB('',0.61176472902298,0.61176472902298,0.650980412960052);
#553=CARTESIAN_POINT('',(-8.99999999999999,-40.0,4.742640687119));
#554=VECTOR('',#599,18.0);
#555=COLOUR_RGB('',0.61176472902298,0.61176472902298,0.650980412960052);
#556=CARTESIAN_POINT('',(-8.99999999999999,-4.74264068712,40.0));
#557=VECTOR('',#600,18.0);
#558=COLOUR_RGB('',0.61176472902298,0.61176472902298,0.650980412960052);
#559=CARTESIAN_POINT('',(-8.99999999999999,-2.44929359829471E-015,40.0));
#560=VECTOR('',#601,18.0);
#561=COLOUR_RGB('',0.61176472902298,0.61176472902298,0.650980412960052);
#562=CARTESIAN_POINT('',(9.00000000000002,-2.32682891837997E-015,38.0));
#563=VECTOR('',#602,18.0);
#564=COLOUR_RGB('',0.61176472902298,0.61176472902298,0.650980412960052);
#565=COLOUR_RGB('',0.61176472902298,0.61176472902298,0.650980412960052);
#566=DIRECTION('',(-8.65956056235493E-017,-0.707106781186547,-0.707106781186548));
#567=DIRECTION('',(1.22464679914735E-016,-6.12323399573677E-017,1.0));
#568=DIRECTION('',(1.49975978266186E-032,1.0,6.12323399573677E-017));
#569=DIRECTION('',(-1.22464679914735E-016,6.12323399573677E-017,-1.0));
#570=DIRECTION('',(8.65956056235494E-017,0.707106781186547,0.707106781186548));
#571=DIRECTION('',(-1.49975978266186E-032,-1.0,-6.12323399573677E-017));
#572=DIRECTION('',(1.22464679914735E-016,-6.12323399573677E-017,1.0));
#573=DIRECTION('',(-1.49975978266186E-032,-1.0,-6.12323399573677E-017));
#574=DIRECTION('',(-1.0,7.49879891330929E-033,1.22464679914735E-016));
#575=DIRECTION('',(-1.0,7.49879891330929E-033,1.22464679914735E-016));
#576=DIRECTION('',(-8.65956056235494E-017,-0.707106781186547,-0.707106781186548));
#577=DIRECTION('',(-8.65956056235494E-017,-0.707106781186547,-0.707106781186548));
#578=DIRECTION('',(-8.65956056235494E-017,-0.707106781186548,-0.707106781186548));
#579=DIRECTION('',(1.22464679914735E-016,-6.12323399573677E-017,1.0));
#580=DIRECTION('',(-1.0,7.49879891330929E-033,1.22464679914735E-016));
#581=DIRECTION('',(1.22464679914735E-016,-6.12323399573677E-017,1.0));
#582=DIRECTION('',(1.0,-7.49879891330929E-033,-1.22464679914735E-016));
#583=DIRECTION('',(-1.22464679914735E-016,6.12323399573677E-017,-1.0));
#584=DIRECTION('',(-1.49975978266186E-032,-1.0,-6.12323399573677E-017));
#585=DIRECTION('',(-1.49975978266186E-032,-1.0,-6.12323399573677E-017));
#586=DIRECTION('',(-1.0,7.49879891330929E-033,1.22464679914735E-016));
#587=DIRECTION('',(1.22464679914735E-016,-6.12323399573677E-017,1.0));
#588=DIRECTION('',(-1.0,7.49879891330929E-033,1.22464679914735E-016));
#589=DIRECTION('',(-1.22464679914735E-016,6.12323399573677E-017,-1.0));
#590=DIRECTION('',(-1.49975978266186E-032,-1.0,-6.12323399573677E-017));
#591=DIRECTION('',(1.49975978266186E-032,1.0,6.12323399573677E-017));
#592=DIRECTION('',(1.49975978266186E-032,1.0,6.12323399573677E-017));
#593=DIRECTION('',(1.22464679914735E-016,-6.12323399573677E-017,1.0));
#594=DIRECTION('',(-1.49975978266186E-032,-1.0,-6.12323399573677E-017));
#595=DIRECTION('',(8.65956056235494E-017,0.707106781186547,0.707106781186548));
#596=DIRECTION('',(-1.22464679914735E-016,6.12323399573677E-017,-1.0));
#597=DIRECTION('',(1.49975978266186E-032,1.0,6.12323399573677E-017));
#598=DIRECTION('',(1.0,-7.49879891330929E-033,-1.22464679914735E-016));
#599=DIRECTION('',(1.0,-7.49879891330929E-033,-1.22464679914735E-016));
#600=DIRECTION('',(1.0,-7.49879891330929E-033,-1.22464679914735E-016));
#601=DIRECTION('',(1.0,-7.49879891330929E-033,-1.22464679914735E-016));
#602=DIRECTION('',(-1.0,7.49879891330929E-033,1.22464679914735E-016));
ENDSEC;
END-ISO-10303-21;
