ISO-10303-21;
HEADER;
FILE_DESCRIPTION(('STEP AP214'),'1');
FILE_NAME('cctmp_72025E72-AE31-4FE9-97E2-F9ED3EA0B5FA_2020_1_20_7_59_1_65..stp','2020-01-20T06:59:01',('Bosch Rexroth AG'),('CADClick - www.CADClick.com'),'Spatial InterOp 3D',' ','unknown authorization - (Healing Option Enabled)');
FILE_SCHEMA(('AUTOMOTIVE_DESIGN'));
ENDSEC;
DATA;
#1=MECHANICAL_DESIGN_GEOMETRIC_PRESENTATION_REPRESENTATION(' ',(#10,#11,#12,#13,#14,#15,#16,#17,#18,#19,#20,#21,#22,#23,#24,#25,#26,#27),#6);
#2=PRODUCT_DEFINITION_CONTEXT('',#28,'design');
#3=APPLICATION_PROTOCOL_DEFINITION('INTERNATIONAL STANDARD','automotive_design',1994,#28);
#4=PRODUCT_CATEGORY_RELATIONSHIP('NONE','NONE',#29,#30);
#5=SHAPE_DEFINITION_REPRESENTATION(#31,#32);
#6= (GEOMETRIC_REPRESENTATION_CONTEXT(3)GLOBAL_UNCERTAINTY_ASSIGNED_CONTEXT((#35))GLOBAL_UNIT_ASSIGNED_CONTEXT((#37,#38,#39))REPRESENTATION_CONTEXT('NONE','WORKSPACE'));
#10=STYLED_ITEM('',(#41),#42);
#11=STYLED_ITEM('',(#43),#44);
#12=STYLED_ITEM('',(#45),#46);
#13=STYLED_ITEM('',(#47),#48);
#14=STYLED_ITEM('',(#49),#50);
#15=STYLED_ITEM('',(#51),#52);
#16=STYLED_ITEM('',(#53),#54);
#17=STYLED_ITEM('',(#55),#56);
#18=STYLED_ITEM('',(#57),#58);
#19=STYLED_ITEM('',(#59),#60);
#20=STYLED_ITEM('',(#61),#62);
#21=STYLED_ITEM('',(#63),#64);
#22=STYLED_ITEM('',(#65),#66);
#23=STYLED_ITEM('',(#67),#68);
#24=STYLED_ITEM('',(#69),#70);
#25=STYLED_ITEM('',(#71),#72);
#26=STYLED_ITEM('',(#73),#74);
#27=STYLED_ITEM('',(#75),#76);
#28=APPLICATION_CONTEXT(' ');
#29=PRODUCT_CATEGORY('part','NONE');
#30=PRODUCT_RELATED_PRODUCT_CATEGORY('detail',' ',(#77));
#31=PRODUCT_DEFINITION_SHAPE('NONE','NONE',#78);
#32=ADVANCED_BREP_SHAPE_REPRESENTATION('2020_01_20__07-59-01-065',(#76,#79),#6);
#35=UNCERTAINTY_MEASURE_WITH_UNIT(LENGTH_MEASURE(1.0E-006),#37,'','');
#37= (CONVERSION_BASED_UNIT('MILLIMETRE',#82)LENGTH_UNIT()NAMED_UNIT(#85));
#38= (NAMED_UNIT(#87)PLANE_ANGLE_UNIT()SI_UNIT($,.RADIAN.));
#39= (NAMED_UNIT(#87)SOLID_ANGLE_UNIT()SI_UNIT($,.STERADIAN.));
#41=PRESENTATION_STYLE_ASSIGNMENT((#93));
#42=ADVANCED_FACE('',(#94),#95,.F.);
#43=PRESENTATION_STYLE_ASSIGNMENT((#96));
#44=ADVANCED_FACE('',(#97),#98,.F.);
#45=PRESENTATION_STYLE_ASSIGNMENT((#99));
#46=ADVANCED_FACE('',(#100),#101,.T.);
#47=PRESENTATION_STYLE_ASSIGNMENT((#102));
#48=ADVANCED_FACE('',(#103),#104,.F.);
#49=PRESENTATION_STYLE_ASSIGNMENT((#105));
#50=ADVANCED_FACE('',(#106),#107,.T.);
#51=PRESENTATION_STYLE_ASSIGNMENT((#108));
#52=ADVANCED_FACE('',(#109),#110,.T.);
#53=PRESENTATION_STYLE_ASSIGNMENT((#111));
#54=ADVANCED_FACE('',(#112),#113,.T.);
#55=PRESENTATION_STYLE_ASSIGNMENT((#114));
#56=ADVANCED_FACE('',(#115),#116,.T.);
#57=PRESENTATION_STYLE_ASSIGNMENT((#117));
#58=ADVANCED_FACE('',(#118),#119,.T.);
#59=PRESENTATION_STYLE_ASSIGNMENT((#120));
#60=ADVANCED_FACE('',(#121),#122,.F.);
#61=PRESENTATION_STYLE_ASSIGNMENT((#123));
#62=ADVANCED_FACE('',(#124),#125,.F.);
#63=PRESENTATION_STYLE_ASSIGNMENT((#126));
#64=ADVANCED_FACE('',(#127),#128,.F.);
#65=PRESENTATION_STYLE_ASSIGNMENT((#129));
#66=ADVANCED_FACE('',(#130),#131,.F.);
#67=PRESENTATION_STYLE_ASSIGNMENT((#132));
#68=ADVANCED_FACE('',(#133,#134),#135,.F.);
#69=PRESENTATION_STYLE_ASSIGNMENT((#136));
#70=ADVANCED_FACE('',(#137),#138,.F.);
#71=PRESENTATION_STYLE_ASSIGNMENT((#139));
#72=ADVANCED_FACE('',(#140),#141,.F.);
#73=PRESENTATION_STYLE_ASSIGNMENT((#142));
#74=ADVANCED_FACE('',(#143),#144,.F.);
#75=PRESENTATION_STYLE_ASSIGNMENT((#145));
#76=MANIFOLD_SOLID_BREP('2020_01_20__07-59-01-065',#146);
#77=PRODUCT('2020_01_20__07-59-01-065','','PART--DESC',(#147));
#78=PRODUCT_DEFINITION('','NONE',#148,#2);
#79=AXIS2_PLACEMENT_3D('',#149,#150,#151);
#82=LENGTH_MEASURE_WITH_UNIT(LENGTH_MEASURE(1.0),#152);
#85=DIMENSIONAL_EXPONENTS(1.0,0.0,0.0,0.0,0.0,0.0,0.0);
#87=DIMENSIONAL_EXPONENTS(0.0,0.0,0.0,0.0,0.0,0.0,0.0);
#93=SURFACE_STYLE_USAGE(.BOTH.,#153);
#94=FACE_OUTER_BOUND('',#154,.T.);
#95=PLANE('',#155);
#96=SURFACE_STYLE_USAGE(.BOTH.,#156);
#97=FACE_OUTER_BOUND('',#157,.T.);
#98=PLANE('',#158);
#99=SURFACE_STYLE_USAGE(.BOTH.,#159);
#100=FACE_OUTER_BOUND('',#160,.T.);
#101=PLANE('',#161);
#102=SURFACE_STYLE_USAGE(.BOTH.,#162);
#103=FACE_OUTER_BOUND('',#163,.T.);
#104=PLANE('',#164);
#105=SURFACE_STYLE_USAGE(.BOTH.,#165);
#106=FACE_OUTER_BOUND('',#166,.T.);
#107=PLANE('',#167);
#108=SURFACE_STYLE_USAGE(.BOTH.,#168);
#109=FACE_OUTER_BOUND('',#169,.T.);
#110=PLANE('',#170);
#111=SURFACE_STYLE_USAGE(.BOTH.,#171);
#112=FACE_OUTER_BOUND('',#172,.T.);
#113=PLANE('',#173);
#114=SURFACE_STYLE_USAGE(.BOTH.,#174);
#115=FACE_OUTER_BOUND('',#175,.T.);
#116=PLANE('',#176);
#117=SURFACE_STYLE_USAGE(.BOTH.,#177);
#118=FACE_OUTER_BOUND('',#178,.T.);
#119=PLANE('',#179);
#120=SURFACE_STYLE_USAGE(.BOTH.,#180);
#121=FACE_OUTER_BOUND('',#181,.T.);
#122=PLANE('',#182);
#123=SURFACE_STYLE_USAGE(.BOTH.,#183);
#124=FACE_OUTER_BOUND('',#184,.T.);
#125=PLANE('',#185);
#126=SURFACE_STYLE_USAGE(.BOTH.,#186);
#127=FACE_OUTER_BOUND('',#187,.T.);
#128=PLANE('',#188);
#129=SURFACE_STYLE_USAGE(.BOTH.,#189);
#130=FACE_OUTER_BOUND('',#190,.T.);
#131=PLANE('',#191);
#132=SURFACE_STYLE_USAGE(.BOTH.,#192);
#133=FACE_BOUND('',#193,.T.);
#134=FACE_OUTER_BOUND('',#194,.T.);
#135=PLANE('',#195);
#136=SURFACE_STYLE_USAGE(.BOTH.,#196);
#137=FACE_OUTER_BOUND('',#197,.T.);
#138=PLANE('',#198);
#139=SURFACE_STYLE_USAGE(.BOTH.,#199);
#140=FACE_OUTER_BOUND('',#200,.T.);
#141=PLANE('',#201);
#142=SURFACE_STYLE_USAGE(.BOTH.,#202);
#143=FACE_OUTER_BOUND('',#203,.T.);
#144=PLANE('',#204);
#145=SURFACE_STYLE_USAGE(.BOTH.,#205);
#146=CLOSED_SHELL('',(#42,#44,#46,#48,#50,#52,#54,#56,#58,#60,#62,#64,#66,#68,#70,#72,#74));
#147=PRODUCT_CONTEXT('',#28,'mechanical');
#148=PRODUCT_DEFINITION_FORMATION_WITH_SPECIFIED_SOURCE(' ','NONE',#77,.NOT_KNOWN.);
#149=CARTESIAN_POINT('',(0.0,0.0,0.0));
#150=DIRECTION('',(0.0,0.0,1.0));
#151=DIRECTION('',(1.0,0.0,0.0));
#152= (NAMED_UNIT(#85)LENGTH_UNIT()SI_UNIT(.MILLI.,.METRE.));
#153=SURFACE_SIDE_STYLE('',(#207));
#154=EDGE_LOOP('',(#208,#209,#210,#211));
#155=AXIS2_PLACEMENT_3D('',#212,#213,#214);
#156=SURFACE_SIDE_STYLE('',(#215));
#157=EDGE_LOOP('',(#216,#217,#218,#219));
#158=AXIS2_PLACEMENT_3D('',#220,#221,#222);
#159=SURFACE_SIDE_STYLE('',(#223));
#160=EDGE_LOOP('',(#224,#225,#226,#227));
#161=AXIS2_PLACEMENT_3D('',#228,#229,#230);
#162=SURFACE_SIDE_STYLE('',(#231));
#163=EDGE_LOOP('',(#232,#233,#234,#235));
#164=AXIS2_PLACEMENT_3D('',#236,#237,#238);
#165=SURFACE_SIDE_STYLE('',(#239));
#166=EDGE_LOOP('',(#240,#241,#242,#243));
#167=AXIS2_PLACEMENT_3D('',#244,#245,#246);
#168=SURFACE_SIDE_STYLE('',(#247));
#169=EDGE_LOOP('',(#248,#249,#250,#251));
#170=AXIS2_PLACEMENT_3D('',#252,#253,#254);
#171=SURFACE_SIDE_STYLE('',(#255));
#172=EDGE_LOOP('',(#256,#257,#258,#259));
#173=AXIS2_PLACEMENT_3D('',#260,#261,#262);
#174=SURFACE_SIDE_STYLE('',(#263));
#175=EDGE_LOOP('',(#264,#265,#266,#267));
#176=AXIS2_PLACEMENT_3D('',#268,#269,#270);
#177=SURFACE_SIDE_STYLE('',(#271));
#178=EDGE_LOOP('',(#272,#273,#274,#275));
#179=AXIS2_PLACEMENT_3D('',#276,#277,#278);
#180=SURFACE_SIDE_STYLE('',(#279));
#181=EDGE_LOOP('',(#280,#281,#282,#283));
#182=AXIS2_PLACEMENT_3D('',#284,#285,#286);
#183=SURFACE_SIDE_STYLE('',(#287));
#184=EDGE_LOOP('',(#288,#289,#290,#291,#292,#293,#294,#295));
#185=AXIS2_PLACEMENT_3D('',#296,#297,#298);
#186=SURFACE_SIDE_STYLE('',(#299));
#187=EDGE_LOOP('',(#300,#301,#302,#303));
#188=AXIS2_PLACEMENT_3D('',#304,#305,#306);
#189=SURFACE_SIDE_STYLE('',(#307));
#190=EDGE_LOOP('',(#308,#309,#310,#311,#312,#313,#314,#315));
#191=AXIS2_PLACEMENT_3D('',#316,#317,#318);
#192=SURFACE_SIDE_STYLE('',(#319));
#193=EDGE_LOOP('',(#320,#321,#322,#323));
#194=EDGE_LOOP('',(#324,#325,#326,#327));
#195=AXIS2_PLACEMENT_3D('',#328,#329,#330);
#196=SURFACE_SIDE_STYLE('',(#331));
#197=EDGE_LOOP('',(#332,#333,#334,#335));
#198=AXIS2_PLACEMENT_3D('',#336,#337,#338);
#199=SURFACE_SIDE_STYLE('',(#339));
#200=EDGE_LOOP('',(#340,#341,#342,#343,#344,#345));
#201=AXIS2_PLACEMENT_3D('',#346,#347,#348);
#202=SURFACE_SIDE_STYLE('',(#349));
#203=EDGE_LOOP('',(#350,#351,#352,#353,#354,#355));
#204=AXIS2_PLACEMENT_3D('',#356,#357,#358);
#205=SURFACE_SIDE_STYLE('',(#359));
#207=SURFACE_STYLE_FILL_AREA(#360);
#208=ORIENTED_EDGE('',*,*,#361,.T.);
#209=ORIENTED_EDGE('',*,*,#362,.F.);
#210=ORIENTED_EDGE('',*,*,#363,.T.);
#211=ORIENTED_EDGE('',*,*,#364,.T.);
#212=CARTESIAN_POINT('',(0.0,-9.0,0.5));
#213=DIRECTION('',(0.0,0.0,1.0));
#214=DIRECTION('',(-1.0,0.0,0.0));
#215=SURFACE_STYLE_FILL_AREA(#365);
#216=ORIENTED_EDGE('',*,*,#366,.T.);
#217=ORIENTED_EDGE('',*,*,#364,.F.);
#218=ORIENTED_EDGE('',*,*,#367,.F.);
#219=ORIENTED_EDGE('',*,*,#368,.F.);
#220=CARTESIAN_POINT('',(0.0,-10.0,6.25));
#221=DIRECTION('',(0.0,1.0,0.0));
#222=DIRECTION('',(0.0,0.0,-1.0));
#223=SURFACE_STYLE_FILL_AREA(#369);
#224=ORIENTED_EDGE('',*,*,#370,.T.);
#225=ORIENTED_EDGE('',*,*,#368,.T.);
#226=ORIENTED_EDGE('',*,*,#371,.T.);
#227=ORIENTED_EDGE('',*,*,#372,.T.);
#228=CARTESIAN_POINT('',(0.0,-1.0,12.0));
#229=DIRECTION('',(0.0,0.0,1.0));
#230=DIRECTION('',(-1.0,0.0,0.0));
#231=SURFACE_STYLE_FILL_AREA(#373);
#232=ORIENTED_EDGE('',*,*,#362,.T.);
#233=ORIENTED_EDGE('',*,*,#374,.T.);
#234=ORIENTED_EDGE('',*,*,#375,.F.);
#235=ORIENTED_EDGE('',*,*,#376,.F.);
#236=CARTESIAN_POINT('',(0.0,-8.0,5.25));
#237=DIRECTION('',(0.0,1.0,0.0));
#238=DIRECTION('',(0.0,0.0,-1.0));
#239=SURFACE_STYLE_FILL_AREA(#377);
#240=ORIENTED_EDGE('',*,*,#378,.T.);
#241=ORIENTED_EDGE('',*,*,#379,.F.);
#242=ORIENTED_EDGE('',*,*,#380,.T.);
#243=ORIENTED_EDGE('',*,*,#381,.T.);
#244=CARTESIAN_POINT('',(3.0,-2.75,-1.5));
#245=DIRECTION('',(0.0,0.0,1.0));
#246=DIRECTION('',(0.0,1.0,-0.0));
#247=SURFACE_STYLE_FILL_AREA(#382);
#248=ORIENTED_EDGE('',*,*,#383,.T.);
#249=ORIENTED_EDGE('',*,*,#384,.F.);
#250=ORIENTED_EDGE('',*,*,#385,.F.);
#251=ORIENTED_EDGE('',*,*,#386,.T.);
#252=CARTESIAN_POINT('',(3.0,-5.5,-3.5));
#253=DIRECTION('',(0.0,-1.0,0.0));
#254=DIRECTION('',(0.0,0.0,1.0));
#255=SURFACE_STYLE_FILL_AREA(#387);
#256=ORIENTED_EDGE('',*,*,#388,.T.);
#257=ORIENTED_EDGE('',*,*,#389,.F.);
#258=ORIENTED_EDGE('',*,*,#390,.F.);
#259=ORIENTED_EDGE('',*,*,#384,.T.);
#260=CARTESIAN_POINT('',(3.0,0.0,-4.5));
#261=DIRECTION('',(0.0,0.0,-1.0));
#262=DIRECTION('',(0.0,-1.0,0.0));
#263=SURFACE_STYLE_FILL_AREA(#391);
#264=ORIENTED_EDGE('',*,*,#392,.T.);
#265=ORIENTED_EDGE('',*,*,#380,.F.);
#266=ORIENTED_EDGE('',*,*,#393,.F.);
#267=ORIENTED_EDGE('',*,*,#389,.T.);
#268=CARTESIAN_POINT('',(3.0,5.5,-2.0));
#269=DIRECTION('',(0.0,1.0,0.0));
#270=DIRECTION('',(0.0,0.0,-1.0));
#271=SURFACE_STYLE_FILL_AREA(#394);
#272=ORIENTED_EDGE('',*,*,#395,.T.);
#273=ORIENTED_EDGE('',*,*,#396,.T.);
#274=ORIENTED_EDGE('',*,*,#386,.F.);
#275=ORIENTED_EDGE('',*,*,#397,.F.);
#276=CARTESIAN_POINT('',(3.0,-2.75,-1.5));
#277=DIRECTION('',(0.0,0.0,1.0));
#278=DIRECTION('',(0.0,1.0,-0.0));
#279=SURFACE_STYLE_FILL_AREA(#398);
#280=ORIENTED_EDGE('',*,*,#399,.T.);
#281=ORIENTED_EDGE('',*,*,#378,.F.);
#282=ORIENTED_EDGE('',*,*,#400,.F.);
#283=ORIENTED_EDGE('',*,*,#401,.F.);
#284=CARTESIAN_POINT('',(0.0,3.0,-0.75));
#285=DIRECTION('',(0.0,-1.0,0.0));
#286=DIRECTION('',(0.0,0.0,1.0));
#287=SURFACE_STYLE_FILL_AREA(#402);
#288=ORIENTED_EDGE('',*,*,#403,.T.);
#289=ORIENTED_EDGE('',*,*,#397,.T.);
#290=ORIENTED_EDGE('',*,*,#385,.T.);
#291=ORIENTED_EDGE('',*,*,#390,.T.);
#292=ORIENTED_EDGE('',*,*,#393,.T.);
#293=ORIENTED_EDGE('',*,*,#379,.T.);
#294=ORIENTED_EDGE('',*,*,#399,.F.);
#295=ORIENTED_EDGE('',*,*,#404,.F.);
#296=CARTESIAN_POINT('',(3.0,0.0,-0.75));
#297=DIRECTION('',(-1.0,0.0,0.0));
#298=DIRECTION('',(0.0,0.0,-1.0));
#299=SURFACE_STYLE_FILL_AREA(#405);
#300=ORIENTED_EDGE('',*,*,#406,.T.);
#301=ORIENTED_EDGE('',*,*,#395,.F.);
#302=ORIENTED_EDGE('',*,*,#403,.F.);
#303=ORIENTED_EDGE('',*,*,#407,.F.);
#304=CARTESIAN_POINT('',(0.0,-3.0,-0.75));
#305=DIRECTION('',(0.0,1.0,0.0));
#306=DIRECTION('',(0.0,0.0,-1.0));
#307=SURFACE_STYLE_FILL_AREA(#408);
#308=ORIENTED_EDGE('',*,*,#400,.T.);
#309=ORIENTED_EDGE('',*,*,#381,.F.);
#310=ORIENTED_EDGE('',*,*,#392,.F.);
#311=ORIENTED_EDGE('',*,*,#388,.F.);
#312=ORIENTED_EDGE('',*,*,#383,.F.);
#313=ORIENTED_EDGE('',*,*,#396,.F.);
#314=ORIENTED_EDGE('',*,*,#406,.F.);
#315=ORIENTED_EDGE('',*,*,#409,.F.);
#316=CARTESIAN_POINT('',(-3.0,0.0,-0.75));
#317=DIRECTION('',(1.0,0.0,-0.0));
#318=DIRECTION('',(0.0,0.0,1.0));
#319=SURFACE_STYLE_FILL_AREA(#410);
#320=ORIENTED_EDGE('',*,*,#401,.T.);
#321=ORIENTED_EDGE('',*,*,#409,.T.);
#322=ORIENTED_EDGE('',*,*,#407,.T.);
#323=ORIENTED_EDGE('',*,*,#404,.T.);
#324=ORIENTED_EDGE('',*,*,#411,.T.);
#325=ORIENTED_EDGE('',*,*,#412,.T.);
#326=ORIENTED_EDGE('',*,*,#413,.T.);
#327=ORIENTED_EDGE('',*,*,#375,.T.);
#328=CARTESIAN_POINT('',(0.0,-1.0,0.0));
#329=DIRECTION('',(0.0,0.0,1.0));
#330=DIRECTION('',(-1.0,0.0,0.0));
#331=SURFACE_STYLE_FILL_AREA(#414);
#332=ORIENTED_EDGE('',*,*,#415,.T.);
#333=ORIENTED_EDGE('',*,*,#412,.F.);
#334=ORIENTED_EDGE('',*,*,#416,.F.);
#335=ORIENTED_EDGE('',*,*,#372,.F.);
#336=CARTESIAN_POINT('',(0.0,6.0,5.25));
#337=DIRECTION('',(0.0,-1.0,0.0));
#338=DIRECTION('',(0.0,0.0,1.0));
#339=SURFACE_STYLE_FILL_AREA(#417);
#340=ORIENTED_EDGE('',*,*,#363,.F.);
#341=ORIENTED_EDGE('',*,*,#376,.T.);
#342=ORIENTED_EDGE('',*,*,#413,.F.);
#343=ORIENTED_EDGE('',*,*,#415,.F.);
#344=ORIENTED_EDGE('',*,*,#371,.F.);
#345=ORIENTED_EDGE('',*,*,#367,.T.);
#346=CARTESIAN_POINT('',(6.0,-1.0,5.25));
#347=DIRECTION('',(-1.0,0.0,0.0));
#348=DIRECTION('',(0.0,0.0,-1.0));
#349=SURFACE_STYLE_FILL_AREA(#418);
#350=ORIENTED_EDGE('',*,*,#416,.T.);
#351=ORIENTED_EDGE('',*,*,#411,.F.);
#352=ORIENTED_EDGE('',*,*,#374,.F.);
#353=ORIENTED_EDGE('',*,*,#361,.F.);
#354=ORIENTED_EDGE('',*,*,#366,.F.);
#355=ORIENTED_EDGE('',*,*,#370,.F.);
#356=CARTESIAN_POINT('',(-6.0,-1.0,5.25));
#357=DIRECTION('',(1.0,0.0,-0.0));
#358=DIRECTION('',(0.0,0.0,1.0));
#359=SURFACE_STYLE_FILL_AREA(#419);
#360=FILL_AREA_STYLE('',(#420));
#361=EDGE_CURVE('',#421,#422,#423,.T.);
#362=EDGE_CURVE('',#424,#422,#425,.T.);
#363=EDGE_CURVE('',#424,#426,#427,.T.);
#364=EDGE_CURVE('',#426,#421,#428,.T.);
#365=FILL_AREA_STYLE('',(#429));
#366=EDGE_CURVE('',#430,#421,#431,.T.);
#367=EDGE_CURVE('',#432,#426,#433,.T.);
#368=EDGE_CURVE('',#430,#432,#434,.T.);
#369=FILL_AREA_STYLE('',(#435));
#370=EDGE_CURVE('',#436,#430,#437,.T.);
#371=EDGE_CURVE('',#432,#438,#439,.T.);
#372=EDGE_CURVE('',#438,#436,#440,.T.);
#373=FILL_AREA_STYLE('',(#441));
#374=EDGE_CURVE('',#422,#442,#443,.T.);
#375=EDGE_CURVE('',#444,#442,#445,.T.);
#376=EDGE_CURVE('',#424,#444,#446,.T.);
#377=FILL_AREA_STYLE('',(#447));
#378=EDGE_CURVE('',#448,#449,#450,.T.);
#379=EDGE_CURVE('',#451,#449,#452,.T.);
#380=EDGE_CURVE('',#451,#453,#454,.T.);
#381=EDGE_CURVE('',#453,#448,#455,.T.);
#382=FILL_AREA_STYLE('',(#456));
#383=EDGE_CURVE('',#457,#458,#459,.T.);
#384=EDGE_CURVE('',#460,#458,#461,.T.);
#385=EDGE_CURVE('',#462,#460,#463,.T.);
#386=EDGE_CURVE('',#462,#457,#464,.T.);
#387=FILL_AREA_STYLE('',(#465));
#388=EDGE_CURVE('',#458,#466,#467,.T.);
#389=EDGE_CURVE('',#468,#466,#469,.T.);
#390=EDGE_CURVE('',#460,#468,#470,.T.);
#391=FILL_AREA_STYLE('',(#471));
#392=EDGE_CURVE('',#466,#453,#472,.T.);
#393=EDGE_CURVE('',#468,#451,#473,.T.);
#394=FILL_AREA_STYLE('',(#474));
#395=EDGE_CURVE('',#475,#476,#477,.T.);
#396=EDGE_CURVE('',#476,#457,#478,.T.);
#397=EDGE_CURVE('',#475,#462,#479,.T.);
#398=FILL_AREA_STYLE('',(#480));
#399=EDGE_CURVE('',#481,#449,#482,.T.);
#400=EDGE_CURVE('',#483,#448,#484,.T.);
#401=EDGE_CURVE('',#481,#483,#485,.T.);
#402=FILL_AREA_STYLE('',(#486));
#403=EDGE_CURVE('',#487,#475,#488,.T.);
#404=EDGE_CURVE('',#487,#481,#489,.T.);
#405=FILL_AREA_STYLE('',(#490));
#406=EDGE_CURVE('',#491,#476,#492,.T.);
#407=EDGE_CURVE('',#491,#487,#493,.T.);
#408=FILL_AREA_STYLE('',(#494));
#409=EDGE_CURVE('',#483,#491,#495,.T.);
#410=FILL_AREA_STYLE('',(#496));
#411=EDGE_CURVE('',#442,#497,#498,.T.);
#412=EDGE_CURVE('',#497,#499,#500,.T.);
#413=EDGE_CURVE('',#499,#444,#501,.T.);
#414=FILL_AREA_STYLE('',(#502));
#415=EDGE_CURVE('',#438,#499,#503,.T.);
#416=EDGE_CURVE('',#436,#497,#504,.T.);
#417=FILL_AREA_STYLE('',(#505));
#418=FILL_AREA_STYLE('',(#506));
#419=FILL_AREA_STYLE('',(#507));
#420=FILL_AREA_STYLE_COLOUR('',#508);
#421=VERTEX_POINT('',#509);
#422=VERTEX_POINT('',#510);
#423=LINE('',#511,#512);
#424=VERTEX_POINT('',#513);
#425=LINE('',#514,#515);
#426=VERTEX_POINT('',#516);
#427=LINE('',#517,#518);
#428=LINE('',#519,#520);
#429=FILL_AREA_STYLE_COLOUR('',#521);
#430=VERTEX_POINT('',#522);
#431=LINE('',#523,#524);
#432=VERTEX_POINT('',#525);
#433=LINE('',#526,#527);
#434=LINE('',#528,#529);
#435=FILL_AREA_STYLE_COLOUR('',#530);
#436=VERTEX_POINT('',#531);
#437=LINE('',#532,#533);
#438=VERTEX_POINT('',#534);
#439=LINE('',#535,#536);
#440=LINE('',#537,#538);
#441=FILL_AREA_STYLE_COLOUR('',#539);
#442=VERTEX_POINT('',#540);
#443=LINE('',#541,#542);
#444=VERTEX_POINT('',#543);
#445=LINE('',#544,#545);
#446=LINE('',#546,#547);
#447=FILL_AREA_STYLE_COLOUR('',#548);
#448=VERTEX_POINT('',#549);
#449=VERTEX_POINT('',#550);
#450=LINE('',#551,#552);
#451=VERTEX_POINT('',#553);
#452=LINE('',#554,#555);
#453=VERTEX_POINT('',#556);
#454=LINE('',#557,#558);
#455=LINE('',#559,#560);
#456=FILL_AREA_STYLE_COLOUR('',#561);
#457=VERTEX_POINT('',#562);
#458=VERTEX_POINT('',#563);
#459=LINE('',#564,#565);
#460=VERTEX_POINT('',#566);
#461=LINE('',#567,#568);
#462=VERTEX_POINT('',#569);
#463=LINE('',#570,#571);
#464=LINE('',#572,#573);
#465=FILL_AREA_STYLE_COLOUR('',#574);
#466=VERTEX_POINT('',#575);
#467=LINE('',#576,#577);
#468=VERTEX_POINT('',#578);
#469=LINE('',#579,#580);
#470=LINE('',#581,#582);
#471=FILL_AREA_STYLE_COLOUR('',#583);
#472=LINE('',#584,#585);
#473=LINE('',#586,#587);
#474=FILL_AREA_STYLE_COLOUR('',#588);
#475=VERTEX_POINT('',#589);
#476=VERTEX_POINT('',#590);
#477=LINE('',#591,#592);
#478=LINE('',#593,#594);
#479=LINE('',#595,#596);
#480=FILL_AREA_STYLE_COLOUR('',#597);
#481=VERTEX_POINT('',#598);
#482=LINE('',#599,#600);
#483=VERTEX_POINT('',#601);
#484=LINE('',#602,#603);
#485=LINE('',#604,#605);
#486=FILL_AREA_STYLE_COLOUR('',#606);
#487=VERTEX_POINT('',#607);
#488=LINE('',#608,#609);
#489=LINE('',#610,#611);
#490=FILL_AREA_STYLE_COLOUR('',#612);
#491=VERTEX_POINT('',#613);
#492=LINE('',#614,#615);
#493=LINE('',#616,#617);
#494=FILL_AREA_STYLE_COLOUR('',#618);
#495=LINE('',#619,#620);
#496=FILL_AREA_STYLE_COLOUR('',#621);
#497=VERTEX_POINT('',#622);
#498=LINE('',#623,#624);
#499=VERTEX_POINT('',#625);
#500=LINE('',#626,#627);
#501=LINE('',#628,#629);
#502=FILL_AREA_STYLE_COLOUR('',#630);
#503=LINE('',#631,#632);
#504=LINE('',#633,#634);
#505=FILL_AREA_STYLE_COLOUR('',#635);
#506=FILL_AREA_STYLE_COLOUR('',#636);
#507=FILL_AREA_STYLE_COLOUR('',#637);
#508=COLOUR_RGB('',0.509803950786591,0.509803950786591,0.588235318660736);
#509=CARTESIAN_POINT('',(-6.0,-10.0,0.5));
#510=CARTESIAN_POINT('',(-6.0,-8.0,0.5));
#511=CARTESIAN_POINT('',(-6.0,-9.0,0.5));
#512=VECTOR('',#638,1.0);
#513=CARTESIAN_POINT('',(6.0,-8.0,0.5));
#514=CARTESIAN_POINT('',(0.0,-8.0,0.5));
#515=VECTOR('',#639,1.0);
#516=CARTESIAN_POINT('',(6.0,-10.0,0.5));
#517=CARTESIAN_POINT('',(6.0,-9.0,0.5));
#518=VECTOR('',#640,1.0);
#519=CARTESIAN_POINT('',(0.0,-10.0,0.5));
#520=VECTOR('',#641,1.0);
#521=COLOUR_RGB('',0.509803950786591,0.509803950786591,0.588235318660736);
#522=CARTESIAN_POINT('',(-6.0,-10.0,12.0));
#523=CARTESIAN_POINT('',(-6.0,-10.0,6.25));
#524=VECTOR('',#642,1.0);
#525=CARTESIAN_POINT('',(6.0,-10.0,12.0));
#526=CARTESIAN_POINT('',(6.0,-10.0,6.25));
#527=VECTOR('',#643,1.0);
#528=CARTESIAN_POINT('',(0.0,-10.0,12.0));
#529=VECTOR('',#644,1.0);
#530=COLOUR_RGB('',0.509803950786591,0.509803950786591,0.588235318660736);
#531=CARTESIAN_POINT('',(-6.0,6.0,12.0));
#532=CARTESIAN_POINT('',(-6.0,-1.0,12.0));
#533=VECTOR('',#645,1.0);
#534=CARTESIAN_POINT('',(6.0,6.0,12.0));
#535=CARTESIAN_POINT('',(6.0,-9.0,12.0));
#536=VECTOR('',#646,1.0);
#537=CARTESIAN_POINT('',(0.0,6.0,12.0));
#538=VECTOR('',#647,1.0);
#539=COLOUR_RGB('',0.509803950786591,0.509803950786591,0.588235318660736);
#540=CARTESIAN_POINT('',(-6.0,-8.0,0.0));
#541=CARTESIAN_POINT('',(-6.0,-8.0,5.25));
#542=VECTOR('',#648,1.0);
#543=CARTESIAN_POINT('',(6.0,-8.0,0.0));
#544=CARTESIAN_POINT('',(0.0,-8.0,0.0));
#545=VECTOR('',#649,1.0);
#546=CARTESIAN_POINT('',(6.0,-8.0,5.25));
#547=VECTOR('',#650,1.0);
#548=COLOUR_RGB('',0.509803950786591,0.509803950786591,0.588235318660736);
#549=CARTESIAN_POINT('',(-3.0,3.0,-1.5));
#550=CARTESIAN_POINT('',(3.0,3.0,-1.5));
#551=CARTESIAN_POINT('',(0.0,3.0,-1.5));
#552=VECTOR('',#651,1.0);
#553=CARTESIAN_POINT('',(3.0,5.5,-1.5));
#554=CARTESIAN_POINT('',(3.0,0.0,-1.5));
#555=VECTOR('',#652,1.0);
#556=CARTESIAN_POINT('',(-3.0,5.5,-1.5));
#557=CARTESIAN_POINT('',(3.0,5.5,-1.5));
#558=VECTOR('',#653,1.0);
#559=CARTESIAN_POINT('',(-3.0,5.5,-1.5));
#560=VECTOR('',#654,1.0);
#561=COLOUR_RGB('',0.509803950786591,0.509803950786591,0.588235318660736);
#562=CARTESIAN_POINT('',(-3.0,-5.5,-1.5));
#563=CARTESIAN_POINT('',(-3.0,-5.5,-4.5));
#564=CARTESIAN_POINT('',(-3.0,-5.5,-1.5));
#565=VECTOR('',#655,1.0);
#566=CARTESIAN_POINT('',(3.0,-5.5,-4.5));
#567=CARTESIAN_POINT('',(3.0,-5.5,-4.5));
#568=VECTOR('',#656,1.0);
#569=CARTESIAN_POINT('',(3.0,-5.5,-1.5));
#570=CARTESIAN_POINT('',(3.0,-5.5,-1.5));
#571=VECTOR('',#657,1.0);
#572=CARTESIAN_POINT('',(3.0,-5.5,-1.5));
#573=VECTOR('',#658,1.0);
#574=COLOUR_RGB('',0.509803950786591,0.509803950786591,0.588235318660736);
#575=CARTESIAN_POINT('',(-3.0,5.5,-4.5));
#576=CARTESIAN_POINT('',(-3.0,-5.5,-4.5));
#577=VECTOR('',#659,1.0);
#578=CARTESIAN_POINT('',(3.0,5.5,-4.5));
#579=CARTESIAN_POINT('',(3.0,5.5,-4.5));
#580=VECTOR('',#660,1.0);
#581=CARTESIAN_POINT('',(3.0,-5.5,-4.5));
#582=VECTOR('',#661,1.0);
#583=COLOUR_RGB('',0.509803950786591,0.509803950786591,0.588235318660736);
#584=CARTESIAN_POINT('',(-3.0,5.5,-4.5));
#585=VECTOR('',#662,1.0);
#586=CARTESIAN_POINT('',(3.0,5.5,-4.5));
#587=VECTOR('',#663,1.0);
#588=COLOUR_RGB('',0.509803950786591,0.509803950786591,0.588235318660736);
#589=CARTESIAN_POINT('',(3.0,-3.0,-1.5));
#590=CARTESIAN_POINT('',(-3.0,-3.0,-1.5));
#591=CARTESIAN_POINT('',(0.0,-3.0,-1.5));
#592=VECTOR('',#664,1.0);
#593=CARTESIAN_POINT('',(-3.0,5.5,-1.5));
#594=VECTOR('',#665,1.0);
#595=CARTESIAN_POINT('',(3.0,0.0,-1.5));
#596=VECTOR('',#666,1.0);
#597=COLOUR_RGB('',0.509803950786591,0.509803950786591,0.588235318660736);
#598=CARTESIAN_POINT('',(3.0,3.0,0.0));
#599=CARTESIAN_POINT('',(3.0,3.0,-0.75));
#600=VECTOR('',#667,1.0);
#601=CARTESIAN_POINT('',(-3.0,3.0,0.0));
#602=CARTESIAN_POINT('',(-3.0,3.0,-0.75));
#603=VECTOR('',#668,1.0);
#604=CARTESIAN_POINT('',(0.0,3.0,0.0));
#605=VECTOR('',#669,1.0);
#606=COLOUR_RGB('',0.509803950786591,0.509803950786591,0.588235318660736);
#607=CARTESIAN_POINT('',(3.0,-3.0,0.0));
#608=CARTESIAN_POINT('',(3.0,-3.0,-0.75));
#609=VECTOR('',#670,1.0);
#610=CARTESIAN_POINT('',(3.0,-0.5,0.0));
#611=VECTOR('',#671,1.0);
#612=COLOUR_RGB('',0.509803950786591,0.509803950786591,0.588235318660736);
#613=CARTESIAN_POINT('',(-3.0,-3.0,0.0));
#614=CARTESIAN_POINT('',(-3.0,-3.0,-0.75));
#615=VECTOR('',#672,1.0);
#616=CARTESIAN_POINT('',(0.0,-3.0,0.0));
#617=VECTOR('',#673,1.0);
#618=COLOUR_RGB('',0.509803950786591,0.509803950786591,0.588235318660736);
#619=CARTESIAN_POINT('',(-3.0,-0.5,0.0));
#620=VECTOR('',#674,1.0);
#621=COLOUR_RGB('',0.509803950786591,0.509803950786591,0.588235318660736);
#622=CARTESIAN_POINT('',(-6.0,6.0,0.0));
#623=CARTESIAN_POINT('',(-6.0,-1.0,0.0));
#624=VECTOR('',#675,1.0);
#625=CARTESIAN_POINT('',(6.0,6.0,0.0));
#626=CARTESIAN_POINT('',(0.0,6.0,0.0));
#627=VECTOR('',#676,1.0);
#628=CARTESIAN_POINT('',(6.0,-1.0,0.0));
#629=VECTOR('',#677,1.0);
#630=COLOUR_RGB('',0.509803950786591,0.509803950786591,0.588235318660736);
#631=CARTESIAN_POINT('',(6.0,6.0,5.25));
#632=VECTOR('',#678,1.0);
#633=CARTESIAN_POINT('',(-6.0,6.0,11.25));
#634=VECTOR('',#679,1.0);
#635=COLOUR_RGB('',0.509803950786591,0.509803950786591,0.588235318660736);
#636=COLOUR_RGB('',0.509803950786591,0.509803950786591,0.588235318660736);
#637=COLOUR_RGB('',0.509803950786591,0.509803950786591,0.588235318660736);
#638=DIRECTION('',(0.0,1.0,0.0));
#639=DIRECTION('',(-1.0,0.0,0.0));
#640=DIRECTION('',(0.0,-1.0,0.0));
#641=DIRECTION('',(-1.0,0.0,0.0));
#642=DIRECTION('',(0.0,0.0,-1.0));
#643=DIRECTION('',(0.0,0.0,-1.0));
#644=DIRECTION('',(1.0,0.0,0.0));
#645=DIRECTION('',(0.0,-1.0,0.0));
#646=DIRECTION('',(0.0,1.0,0.0));
#647=DIRECTION('',(-1.0,0.0,0.0));
#648=DIRECTION('',(0.0,0.0,-1.0));
#649=DIRECTION('',(-1.0,0.0,0.0));
#650=DIRECTION('',(0.0,0.0,-1.0));
#651=DIRECTION('',(1.0,0.0,0.0));
#652=DIRECTION('',(0.0,-1.0,0.0));
#653=DIRECTION('',(-1.0,0.0,0.0));
#654=DIRECTION('',(0.0,-1.0,0.0));
#655=DIRECTION('',(0.0,0.0,-1.0));
#656=DIRECTION('',(-1.0,0.0,0.0));
#657=DIRECTION('',(0.0,0.0,-1.0));
#658=DIRECTION('',(-1.0,0.0,0.0));
#659=DIRECTION('',(0.0,1.0,0.0));
#660=DIRECTION('',(-1.0,0.0,0.0));
#661=DIRECTION('',(0.0,1.0,0.0));
#662=DIRECTION('',(0.0,0.0,1.0));
#663=DIRECTION('',(0.0,0.0,1.0));
#664=DIRECTION('',(-1.0,0.0,0.0));
#665=DIRECTION('',(0.0,-1.0,0.0));
#666=DIRECTION('',(0.0,-1.0,0.0));
#667=DIRECTION('',(0.0,0.0,-1.0));
#668=DIRECTION('',(0.0,0.0,-1.0));
#669=DIRECTION('',(-1.0,0.0,0.0));
#670=DIRECTION('',(0.0,0.0,-1.0));
#671=DIRECTION('',(0.0,1.0,-0.0));
#672=DIRECTION('',(0.0,0.0,-1.0));
#673=DIRECTION('',(1.0,0.0,0.0));
#674=DIRECTION('',(0.0,-1.0,0.0));
#675=DIRECTION('',(0.0,1.0,0.0));
#676=DIRECTION('',(1.0,0.0,0.0));
#677=DIRECTION('',(0.0,-1.0,0.0));
#678=DIRECTION('',(0.0,0.0,-1.0));
#679=DIRECTION('',(0.0,0.0,-1.0));
ENDSEC;
END-ISO-10303-21;
