ISO-10303-21;
HEADER;
FILE_DESCRIPTION(('STEP AP214'),'1');
FILE_NAME('cctmp_AA4E15E3-8D33-4C7D-A1F6-E1FE6AA82628_2020_1_20_7_36_39_605..stp','2020-01-20T06:36:39',('Bosch Rexroth AG'),('CADClick - www.CADClick.com'),'Spatial InterOp 3D',' ','unknown authorization - (Healing Option Enabled)');
FILE_SCHEMA(('AUTOMOTIVE_DESIGN'));
ENDSEC;
DATA;
#1=MECHANICAL_DESIGN_GEOMETRIC_PRESENTATION_REPRESENTATION(' ',(#10,#11,#12,#13,#14,#15,#16,#17),#6);
#2=PRODUCT_DEFINITION_CONTEXT('',#18,'design');
#3=APPLICATION_PROTOCOL_DEFINITION('INTERNATIONAL STANDARD','automotive_design',1994,#18);
#4=PRODUCT_CATEGORY_RELATIONSHIP('NONE','NONE',#19,#20);
#5=SHAPE_DEFINITION_REPRESENTATION(#21,#22);
#6= (GEOMETRIC_REPRESENTATION_CONTEXT(3)GLOBAL_UNCERTAINTY_ASSIGNED_CONTEXT((#25))GLOBAL_UNIT_ASSIGNED_CONTEXT((#27,#28,#29))REPRESENTATION_CONTEXT('NONE','WORKSPACE'));
#10=STYLED_ITEM('',(#31),#32);
#11=STYLED_ITEM('',(#33),#34);
#12=STYLED_ITEM('',(#35),#36);
#13=STYLED_ITEM('',(#37),#38);
#14=STYLED_ITEM('',(#39),#40);
#15=STYLED_ITEM('',(#41),#42);
#16=STYLED_ITEM('',(#43),#44);
#17=STYLED_ITEM('',(#45),#46);
#18=APPLICATION_CONTEXT(' ');
#19=PRODUCT_CATEGORY('part','NONE');
#20=PRODUCT_RELATED_PRODUCT_CATEGORY('detail',' ',(#47));
#21=PRODUCT_DEFINITION_SHAPE('NONE','NONE',#48);
#22=ADVANCED_BREP_SHAPE_REPRESENTATION('2020_01_20__07-36-39-605',(#46,#49),#6);
#25=UNCERTAINTY_MEASURE_WITH_UNIT(LENGTH_MEASURE(1.0E-006),#27,'','');
#27= (CONVERSION_BASED_UNIT('MILLIMETRE',#52)LENGTH_UNIT()NAMED_UNIT(#55));
#28= (NAMED_UNIT(#57)PLANE_ANGLE_UNIT()SI_UNIT($,.RADIAN.));
#29= (NAMED_UNIT(#57)SOLID_ANGLE_UNIT()SI_UNIT($,.STERADIAN.));
#31=PRESENTATION_STYLE_ASSIGNMENT((#63));
#32=ADVANCED_FACE('',(#64),#65,.F.);
#33=PRESENTATION_STYLE_ASSIGNMENT((#66));
#34=ADVANCED_FACE('',(#67),#68,.T.);
#35=PRESENTATION_STYLE_ASSIGNMENT((#69));
#36=ADVANCED_FACE('',(#70),#71,.T.);
#37=PRESENTATION_STYLE_ASSIGNMENT((#72));
#38=ADVANCED_FACE('',(#73),#74,.T.);
#39=PRESENTATION_STYLE_ASSIGNMENT((#75));
#40=ADVANCED_FACE('',(#76),#77,.T.);
#41=PRESENTATION_STYLE_ASSIGNMENT((#78));
#42=ADVANCED_FACE('',(#79),#80,.T.);
#43=PRESENTATION_STYLE_ASSIGNMENT((#81));
#44=ADVANCED_FACE('',(#82),#83,.T.);
#45=PRESENTATION_STYLE_ASSIGNMENT((#84));
#46=MANIFOLD_SOLID_BREP('2020_01_20__07-36-39-605',#85);
#47=PRODUCT('2020_01_20__07-36-39-605','','PART--DESC',(#86));
#48=PRODUCT_DEFINITION('','NONE',#87,#2);
#49=AXIS2_PLACEMENT_3D('',#88,#89,#90);
#52=LENGTH_MEASURE_WITH_UNIT(LENGTH_MEASURE(1.0),#91);
#55=DIMENSIONAL_EXPONENTS(1.0,0.0,0.0,0.0,0.0,0.0,0.0);
#57=DIMENSIONAL_EXPONENTS(0.0,0.0,0.0,0.0,0.0,0.0,0.0);
#63=SURFACE_STYLE_USAGE(.BOTH.,#92);
#64=FACE_OUTER_BOUND('',#93,.T.);
#65=PLANE('',#94);
#66=SURFACE_STYLE_USAGE(.BOTH.,#95);
#67=FACE_OUTER_BOUND('',#96,.T.);
#68=PLANE('',#97);
#69=SURFACE_STYLE_USAGE(.BOTH.,#98);
#70=FACE_OUTER_BOUND('',#99,.T.);
#71=PLANE('',#100);
#72=SURFACE_STYLE_USAGE(.BOTH.,#101);
#73=FACE_OUTER_BOUND('',#102,.T.);
#74=PLANE('',#103);
#75=SURFACE_STYLE_USAGE(.BOTH.,#104);
#76=FACE_OUTER_BOUND('',#105,.T.);
#77=CYLINDRICAL_SURFACE('',#106,37.5);
#78=SURFACE_STYLE_USAGE(.BOTH.,#107);
#79=FACE_OUTER_BOUND('',#108,.T.);
#80=PLANE('',#109);
#81=SURFACE_STYLE_USAGE(.BOTH.,#110);
#82=FACE_OUTER_BOUND('',#111,.T.);
#83=PLANE('',#112);
#84=SURFACE_STYLE_USAGE(.BOTH.,#113);
#85=CLOSED_SHELL('',(#32,#34,#36,#38,#40,#42,#44));
#86=PRODUCT_CONTEXT('',#18,'mechanical');
#87=PRODUCT_DEFINITION_FORMATION_WITH_SPECIFIED_SOURCE(' ','NONE',#47,.NOT_KNOWN.);
#88=CARTESIAN_POINT('',(0.0,0.0,0.0));
#89=DIRECTION('',(0.0,0.0,1.0));
#90=DIRECTION('',(1.0,0.0,0.0));
#91= (NAMED_UNIT(#55)LENGTH_UNIT()SI_UNIT(.MILLI.,.METRE.));
#92=SURFACE_SIDE_STYLE('',(#115));
#93=EDGE_LOOP('',(#116,#117,#118,#119,#120));
#94=AXIS2_PLACEMENT_3D('',#121,#122,#123);
#95=SURFACE_SIDE_STYLE('',(#124));
#96=EDGE_LOOP('',(#125,#126,#127,#128));
#97=AXIS2_PLACEMENT_3D('',#129,#130,#131);
#98=SURFACE_SIDE_STYLE('',(#132));
#99=EDGE_LOOP('',(#133,#134,#135,#136,#137));
#100=AXIS2_PLACEMENT_3D('',#138,#139,#140);
#101=SURFACE_SIDE_STYLE('',(#141));
#102=EDGE_LOOP('',(#142,#143,#144,#145));
#103=AXIS2_PLACEMENT_3D('',#146,#147,#148);
#104=SURFACE_SIDE_STYLE('',(#149));
#105=EDGE_LOOP('',(#150,#151,#152,#153));
#106=AXIS2_PLACEMENT_3D('',#154,#155,#156);
#107=SURFACE_SIDE_STYLE('',(#157));
#108=EDGE_LOOP('',(#158,#159,#160,#161));
#109=AXIS2_PLACEMENT_3D('',#162,#163,#164);
#110=SURFACE_SIDE_STYLE('',(#165));
#111=EDGE_LOOP('',(#166,#167,#168,#169));
#112=AXIS2_PLACEMENT_3D('',#170,#171,#172);
#113=SURFACE_SIDE_STYLE('',(#173));
#115=SURFACE_STYLE_FILL_AREA(#174);
#116=ORIENTED_EDGE('',*,*,#175,.T.);
#117=ORIENTED_EDGE('',*,*,#176,.T.);
#118=ORIENTED_EDGE('',*,*,#177,.T.);
#119=ORIENTED_EDGE('',*,*,#178,.F.);
#120=ORIENTED_EDGE('',*,*,#179,.T.);
#121=CARTESIAN_POINT('',(4.0,4.90274487674469E-013,1.98951966012828E-012));
#122=DIRECTION('',(-1.0,-7.49879891330929E-033,-6.12323399573677E-017));
#123=DIRECTION('',(-6.12323399573677E-017,0.0,1.0));
#124=SURFACE_STYLE_FILL_AREA(#180);
#125=ORIENTED_EDGE('',*,*,#181,.T.);
#126=ORIENTED_EDGE('',*,*,#182,.F.);
#127=ORIENTED_EDGE('',*,*,#175,.F.);
#128=ORIENTED_EDGE('',*,*,#183,.T.);
#129=CARTESIAN_POINT('',(4.0,19.5000000000005,-22.499999999998));
#130=DIRECTION('',(6.12323399573677E-017,-1.22464679914735E-016,-1.0));
#131=DIRECTION('',(0.0,-1.0,1.22464679914735E-016));
#132=SURFACE_STYLE_FILL_AREA(#184);
#133=ORIENTED_EDGE('',*,*,#185,.T.);
#134=ORIENTED_EDGE('',*,*,#186,.T.);
#135=ORIENTED_EDGE('',*,*,#187,.T.);
#136=ORIENTED_EDGE('',*,*,#188,.T.);
#137=ORIENTED_EDGE('',*,*,#181,.F.);
#138=CARTESIAN_POINT('',(0.0,4.90274487674469E-013,1.98927473076845E-012));
#139=DIRECTION('',(-1.0,-7.49879891330929E-033,-6.12323399573677E-017));
#140=DIRECTION('',(-6.12323399573677E-017,0.0,1.0));
#141=SURFACE_STYLE_FILL_AREA(#189);
#142=ORIENTED_EDGE('',*,*,#179,.F.);
#143=ORIENTED_EDGE('',*,*,#190,.T.);
#144=ORIENTED_EDGE('',*,*,#185,.F.);
#145=ORIENTED_EDGE('',*,*,#183,.F.);
#146=CARTESIAN_POINT('',(4.0,-22.4999999999995,-19.499999999998));
#147=DIRECTION('',(0.0,-1.0,1.22464679914735E-016));
#148=DIRECTION('',(-1.0,0.0,0.0));
#149=SURFACE_STYLE_FILL_AREA(#191);
#150=ORIENTED_EDGE('',*,*,#178,.T.);
#151=ORIENTED_EDGE('',*,*,#192,.T.);
#152=ORIENTED_EDGE('',*,*,#186,.F.);
#153=ORIENTED_EDGE('',*,*,#190,.F.);
#154=CARTESIAN_POINT('',(4.0,15.0000000000005,-14.999999999998));
#155=DIRECTION('',(1.0,7.49879891330929E-033,6.12323399573677E-017));
#156=DIRECTION('',(6.12323399573677E-017,-1.22464679914735E-016,-1.0));
#157=SURFACE_STYLE_FILL_AREA(#193);
#158=ORIENTED_EDGE('',*,*,#187,.F.);
#159=ORIENTED_EDGE('',*,*,#192,.F.);
#160=ORIENTED_EDGE('',*,*,#177,.F.);
#161=ORIENTED_EDGE('',*,*,#194,.T.);
#162=CARTESIAN_POINT('',(4.0,15.0000000000005,22.500000000002));
#163=DIRECTION('',(-7.49879891330927E-033,1.22464679914735E-016,1.0));
#164=DIRECTION('',(1.0,6.12323399573677E-017,0.0));
#165=SURFACE_STYLE_FILL_AREA(#195);
#166=ORIENTED_EDGE('',*,*,#176,.F.);
#167=ORIENTED_EDGE('',*,*,#182,.T.);
#168=ORIENTED_EDGE('',*,*,#188,.F.);
#169=ORIENTED_EDGE('',*,*,#194,.F.);
#170=CARTESIAN_POINT('',(4.0,22.5000000000005,19.500000000002));
#171=DIRECTION('',(0.0,1.0,-1.22464679914735E-016));
#172=DIRECTION('',(1.0,0.0,0.0));
#173=SURFACE_STYLE_FILL_AREA(#196);
#174=FILL_AREA_STYLE('',(#197));
#175=EDGE_CURVE('',#198,#199,#200,.T.);
#176=EDGE_CURVE('',#199,#201,#202,.T.);
#177=EDGE_CURVE('',#201,#203,#204,.T.);
#178=EDGE_CURVE('',#205,#203,#206,.T.);
#179=EDGE_CURVE('',#205,#198,#207,.T.);
#180=FILL_AREA_STYLE('',(#208));
#181=EDGE_CURVE('',#209,#210,#211,.T.);
#182=EDGE_CURVE('',#199,#210,#212,.T.);
#183=EDGE_CURVE('',#198,#209,#213,.T.);
#184=FILL_AREA_STYLE('',(#214));
#185=EDGE_CURVE('',#209,#215,#216,.T.);
#186=EDGE_CURVE('',#215,#217,#218,.T.);
#187=EDGE_CURVE('',#217,#219,#220,.T.);
#188=EDGE_CURVE('',#219,#210,#221,.T.);
#189=FILL_AREA_STYLE('',(#222));
#190=EDGE_CURVE('',#205,#215,#223,.T.);
#191=FILL_AREA_STYLE('',(#224));
#192=EDGE_CURVE('',#203,#217,#225,.T.);
#193=FILL_AREA_STYLE('',(#226));
#194=EDGE_CURVE('',#201,#219,#227,.T.);
#195=FILL_AREA_STYLE('',(#228));
#196=FILL_AREA_STYLE('',(#229));
#197=FILL_AREA_STYLE_COLOUR('',#230);
#198=VERTEX_POINT('',#231);
#199=VERTEX_POINT('',#232);
#200=LINE('',#233,#234);
#201=VERTEX_POINT('',#235);
#202=LINE('',#236,#237);
#203=VERTEX_POINT('',#238);
#204=LINE('',#239,#240);
#205=VERTEX_POINT('',#241);
#206=CIRCLE('',#242,37.5);
#207=LINE('',#243,#244);
#208=FILL_AREA_STYLE_COLOUR('',#245);
#209=VERTEX_POINT('',#246);
#210=VERTEX_POINT('',#247);
#211=LINE('',#248,#249);
#212=LINE('',#250,#251);
#213=LINE('',#252,#253);
#214=FILL_AREA_STYLE_COLOUR('',#254);
#215=VERTEX_POINT('',#255);
#216=LINE('',#256,#257);
#217=VERTEX_POINT('',#258);
#218=CIRCLE('',#259,37.5);
#219=VERTEX_POINT('',#260);
#220=LINE('',#261,#262);
#221=LINE('',#263,#264);
#222=FILL_AREA_STYLE_COLOUR('',#265);
#223=LINE('',#266,#267);
#224=FILL_AREA_STYLE_COLOUR('',#268);
#225=LINE('',#269,#270);
#226=FILL_AREA_STYLE_COLOUR('',#271);
#227=LINE('',#272,#273);
#228=FILL_AREA_STYLE_COLOUR('',#274);
#229=FILL_AREA_STYLE_COLOUR('',#275);
#230=COLOUR_RGB('',0.61176472902298,0.61176472902298,0.650980412960052);
#231=CARTESIAN_POINT('',(4.0,-22.4999999999995,-22.499999999998));
#232=CARTESIAN_POINT('',(4.0,22.5000000000005,-22.499999999998));
#233=CARTESIAN_POINT('',(4.0,-22.4999999999995,-22.499999999998));
#234=VECTOR('',#276,45.0);
#235=CARTESIAN_POINT('',(4.0,22.5000000000005,22.500000000002));
#236=CARTESIAN_POINT('',(4.0,22.5000000000005,-22.499999999998));
#237=VECTOR('',#277,45.0);
#238=CARTESIAN_POINT('',(4.0,15.0000000000005,22.500000000002));
#239=CARTESIAN_POINT('',(4.0,22.5000000000005,22.500000000002));
#240=VECTOR('',#278,7.5);
#241=CARTESIAN_POINT('',(4.0,-22.4999999999995,-14.999999999998));
#242=AXIS2_PLACEMENT_3D('',#279,#280,#281);
#243=CARTESIAN_POINT('',(4.0,-22.4999999999995,-14.999999999998));
#244=VECTOR('',#282,7.5);
#245=COLOUR_RGB('',0.61176472902298,0.61176472902298,0.650980412960052);
#246=CARTESIAN_POINT('',(0.0,-22.4999999999995,-22.499999999998));
#247=CARTESIAN_POINT('',(0.0,22.5000000000005,-22.499999999998));
#248=CARTESIAN_POINT('',(0.0,-22.4999999999995,-22.499999999998));
#249=VECTOR('',#283,45.0);
#250=CARTESIAN_POINT('',(4.0,22.5000000000005,-22.499999999998));
#251=VECTOR('',#284,4.0);
#252=CARTESIAN_POINT('',(4.0,-22.4999999999995,-22.499999999998));
#253=VECTOR('',#285,4.0);
#254=COLOUR_RGB('',0.61176472902298,0.61176472902298,0.650980412960052);
#255=CARTESIAN_POINT('',(0.0,-22.4999999999995,-14.999999999998));
#256=CARTESIAN_POINT('',(0.0,-22.4999999999995,-22.499999999998));
#257=VECTOR('',#286,7.5);
#258=CARTESIAN_POINT('',(0.0,15.0000000000005,22.500000000002));
#259=AXIS2_PLACEMENT_3D('',#287,#288,#289);
#260=CARTESIAN_POINT('',(0.0,22.5000000000005,22.500000000002));
#261=CARTESIAN_POINT('',(0.0,15.0000000000005,22.500000000002));
#262=VECTOR('',#290,7.5);
#263=CARTESIAN_POINT('',(0.0,22.5000000000005,22.500000000002));
#264=VECTOR('',#291,45.0);
#265=COLOUR_RGB('',0.61176472902298,0.61176472902298,0.650980412960052);
#266=CARTESIAN_POINT('',(4.0,-22.4999999999995,-14.999999999998));
#267=VECTOR('',#292,4.0);
#268=COLOUR_RGB('',0.61176472902298,0.61176472902298,0.650980412960052);
#269=CARTESIAN_POINT('',(4.0,15.0000000000005,22.500000000002));
#270=VECTOR('',#293,4.0);
#271=COLOUR_RGB('',0.61176472902298,0.61176472902298,0.650980412960052);
#272=CARTESIAN_POINT('',(4.0,22.5000000000005,22.500000000002));
#273=VECTOR('',#294,4.0);
#274=COLOUR_RGB('',0.61176472902298,0.61176472902298,0.650980412960052);
#275=COLOUR_RGB('',0.61176472902298,0.61176472902298,0.650980412960052);
#276=DIRECTION('',(0.0,1.0,-1.22464679914735E-016));
#277=DIRECTION('',(-6.12323399573677E-017,1.22464679914735E-016,1.0));
#278=DIRECTION('',(0.0,-1.0,1.22464679914735E-016));
#279=CARTESIAN_POINT('',(4.0,15.0000000000005,-14.999999999998));
#280=DIRECTION('',(-1.0,-7.49879891330927E-033,-6.12323399573677E-017));
#281=DIRECTION('',(1.16774872027068E-048,-1.0,1.22464679914735E-016));
#282=DIRECTION('',(6.12323399573677E-017,-1.22464679914735E-016,-1.0));
#283=DIRECTION('',(0.0,1.0,-1.22464679914735E-016));
#284=DIRECTION('',(-1.0,-7.49879891330929E-033,-6.12323399573677E-017));
#285=DIRECTION('',(-1.0,-7.49879891330929E-033,-6.12323399573677E-017));
#286=DIRECTION('',(-6.12323399573677E-017,1.22464679914735E-016,1.0));
#287=CARTESIAN_POINT('',(0.0,15.0000000000005,-14.999999999998));
#288=DIRECTION('',(-1.0,-7.49879891330927E-033,-6.12323399573677E-017));
#289=DIRECTION('',(1.16774872027068E-048,-1.0,1.22464679914735E-016));
#290=DIRECTION('',(0.0,1.0,-1.22464679914735E-016));
#291=DIRECTION('',(6.12323399573677E-017,-1.22464679914735E-016,-1.0));
#292=DIRECTION('',(-1.0,-7.49879891330929E-033,-6.12323399573677E-017));
#293=DIRECTION('',(-1.0,-7.49879891330929E-033,-6.12323399573677E-017));
#294=DIRECTION('',(-1.0,-7.49879891330929E-033,-6.12323399573677E-017));
ENDSEC;
END-ISO-10303-21;
