ISO-10303-21;
HEADER;
FILE_DESCRIPTION(('STEP AP214'),'1');
FILE_NAME('cctmp_DFB8AA0D-AE5D-4EAC-A235-4342B2F9CBC2_2020_1_20_7_34_26_351..stp','2020-01-20T06:34:26',('Bosch Rexroth AG'),('CADClick - www.CADClick.com'),'Spatial InterOp 3D',' ','unknown authorization - (Healing Option Enabled)');
FILE_SCHEMA(('AUTOMOTIVE_DESIGN'));
ENDSEC;
DATA;
#1=MECHANICAL_DESIGN_GEOMETRIC_PRESENTATION_REPRESENTATION(' ',(#10,#11,#12,#13,#14,#15,#16),#6);
#2=PRODUCT_DEFINITION_CONTEXT('',#17,'design');
#3=APPLICATION_PROTOCOL_DEFINITION('INTERNATIONAL STANDARD','automotive_design',1994,#17);
#4=PRODUCT_CATEGORY_RELATIONSHIP('NONE','NONE',#18,#19);
#5=SHAPE_DEFINITION_REPRESENTATION(#20,#21);
#6= (GEOMETRIC_REPRESENTATION_CONTEXT(3)GLOBAL_UNCERTAINTY_ASSIGNED_CONTEXT((#24))GLOBAL_UNIT_ASSIGNED_CONTEXT((#26,#27,#28))REPRESENTATION_CONTEXT('NONE','WORKSPACE'));
#10=STYLED_ITEM('',(#30),#31);
#11=STYLED_ITEM('',(#32),#33);
#12=STYLED_ITEM('',(#34),#35);
#13=STYLED_ITEM('',(#36),#37);
#14=STYLED_ITEM('',(#38),#39);
#15=STYLED_ITEM('',(#40),#41);
#16=STYLED_ITEM('',(#42),#43);
#17=APPLICATION_CONTEXT(' ');
#18=PRODUCT_CATEGORY('part','NONE');
#19=PRODUCT_RELATED_PRODUCT_CATEGORY('detail',' ',(#44));
#20=PRODUCT_DEFINITION_SHAPE('NONE','NONE',#45);
#21=ADVANCED_BREP_SHAPE_REPRESENTATION('2020_01_20__07-34-26-351',(#43,#46),#6);
#24=UNCERTAINTY_MEASURE_WITH_UNIT(LENGTH_MEASURE(1.0E-006),#26,'','');
#26= (CONVERSION_BASED_UNIT('MILLIMETRE',#49)LENGTH_UNIT()NAMED_UNIT(#52));
#27= (NAMED_UNIT(#54)PLANE_ANGLE_UNIT()SI_UNIT($,.RADIAN.));
#28= (NAMED_UNIT(#54)SOLID_ANGLE_UNIT()SI_UNIT($,.STERADIAN.));
#30=PRESENTATION_STYLE_ASSIGNMENT((#60));
#31=ADVANCED_FACE('',(#61),#62,.F.);
#32=PRESENTATION_STYLE_ASSIGNMENT((#63));
#33=ADVANCED_FACE('',(#64),#65,.T.);
#34=PRESENTATION_STYLE_ASSIGNMENT((#66));
#35=ADVANCED_FACE('',(#67),#68,.T.);
#36=PRESENTATION_STYLE_ASSIGNMENT((#69));
#37=ADVANCED_FACE('',(#70),#71,.T.);
#38=PRESENTATION_STYLE_ASSIGNMENT((#72));
#39=ADVANCED_FACE('',(#73),#74,.T.);
#40=PRESENTATION_STYLE_ASSIGNMENT((#75));
#41=ADVANCED_FACE('',(#76),#77,.T.);
#42=PRESENTATION_STYLE_ASSIGNMENT((#78));
#43=MANIFOLD_SOLID_BREP('2020_01_20__07-34-26-351',#79);
#44=PRODUCT('2020_01_20__07-34-26-351','','PART--DESC',(#80));
#45=PRODUCT_DEFINITION('','NONE',#81,#2);
#46=AXIS2_PLACEMENT_3D('',#82,#83,#84);
#49=LENGTH_MEASURE_WITH_UNIT(LENGTH_MEASURE(1.0),#85);
#52=DIMENSIONAL_EXPONENTS(1.0,0.0,0.0,0.0,0.0,0.0,0.0);
#54=DIMENSIONAL_EXPONENTS(0.0,0.0,0.0,0.0,0.0,0.0,0.0);
#60=SURFACE_STYLE_USAGE(.BOTH.,#86);
#61=FACE_OUTER_BOUND('',#87,.T.);
#62=PLANE('',#88);
#63=SURFACE_STYLE_USAGE(.BOTH.,#89);
#64=FACE_OUTER_BOUND('',#90,.T.);
#65=PLANE('',#91);
#66=SURFACE_STYLE_USAGE(.BOTH.,#92);
#67=FACE_OUTER_BOUND('',#93,.T.);
#68=CYLINDRICAL_SURFACE('',#94,22.0);
#69=SURFACE_STYLE_USAGE(.BOTH.,#95);
#70=FACE_OUTER_BOUND('',#96,.T.);
#71=PLANE('',#97);
#72=SURFACE_STYLE_USAGE(.BOTH.,#98);
#73=FACE_OUTER_BOUND('',#99,.T.);
#74=PLANE('',#100);
#75=SURFACE_STYLE_USAGE(.BOTH.,#101);
#76=FACE_OUTER_BOUND('',#102,.T.);
#77=PLANE('',#103);
#78=SURFACE_STYLE_USAGE(.BOTH.,#104);
#79=CLOSED_SHELL('',(#31,#33,#35,#37,#39,#41));
#80=PRODUCT_CONTEXT('',#17,'mechanical');
#81=PRODUCT_DEFINITION_FORMATION_WITH_SPECIFIED_SOURCE(' ','NONE',#44,.NOT_KNOWN.);
#82=CARTESIAN_POINT('',(0.0,0.0,0.0));
#83=DIRECTION('',(0.0,0.0,1.0));
#84=DIRECTION('',(1.0,0.0,0.0));
#85= (NAMED_UNIT(#52)LENGTH_UNIT()SI_UNIT(.MILLI.,.METRE.));
#86=SURFACE_SIDE_STYLE('',(#106));
#87=EDGE_LOOP('',(#107,#108,#109,#110));
#88=AXIS2_PLACEMENT_3D('',#111,#112,#113);
#89=SURFACE_SIDE_STYLE('',(#114));
#90=EDGE_LOOP('',(#115,#116,#117,#118));
#91=AXIS2_PLACEMENT_3D('',#119,#120,#121);
#92=SURFACE_SIDE_STYLE('',(#122));
#93=EDGE_LOOP('',(#123,#124,#125,#126));
#94=AXIS2_PLACEMENT_3D('',#127,#128,#129);
#95=SURFACE_SIDE_STYLE('',(#130));
#96=EDGE_LOOP('',(#131,#132,#133,#134));
#97=AXIS2_PLACEMENT_3D('',#135,#136,#137);
#98=SURFACE_SIDE_STYLE('',(#138));
#99=EDGE_LOOP('',(#139,#140,#141,#142));
#100=AXIS2_PLACEMENT_3D('',#143,#144,#145);
#101=SURFACE_SIDE_STYLE('',(#146));
#102=EDGE_LOOP('',(#147,#148,#149,#150));
#103=AXIS2_PLACEMENT_3D('',#151,#152,#153);
#104=SURFACE_SIDE_STYLE('',(#154));
#106=SURFACE_STYLE_FILL_AREA(#155);
#107=ORIENTED_EDGE('',*,*,#156,.F.);
#108=ORIENTED_EDGE('',*,*,#157,.F.);
#109=ORIENTED_EDGE('',*,*,#158,.F.);
#110=ORIENTED_EDGE('',*,*,#159,.F.);
#111=CARTESIAN_POINT('',(0.0,-1.11022302462516E-016,-2.22044604925031E-016));
#112=DIRECTION('',(1.0,6.12323399573677E-017,7.49879891330927E-033));
#113=DIRECTION('',(0.0,-1.22464679914735E-016,1.0));
#114=SURFACE_STYLE_FILL_AREA(#160);
#115=ORIENTED_EDGE('',*,*,#156,.T.);
#116=ORIENTED_EDGE('',*,*,#161,.T.);
#117=ORIENTED_EDGE('',*,*,#162,.F.);
#118=ORIENTED_EDGE('',*,*,#163,.F.);
#119=CARTESIAN_POINT('',(0.0,-21.99468473407,0.483573622959904));
#120=DIRECTION('',(5.85256965427622E-017,-0.999758397003229,0.0219806192254508));
#121=DIRECTION('',(-1.0,-5.85398399435231E-017,0.0));
#122=SURFACE_STYLE_FILL_AREA(#164);
#123=ORIENTED_EDGE('',*,*,#157,.T.);
#124=ORIENTED_EDGE('',*,*,#163,.T.);
#125=ORIENTED_EDGE('',*,*,#165,.F.);
#126=ORIENTED_EDGE('',*,*,#166,.F.);
#127=CARTESIAN_POINT('',(0.0,-1.11022302462516E-016,-2.22044604925031E-016));
#128=DIRECTION('',(-1.0,-6.12323399573676E-017,-1.22464679914735E-016));
#129=DIRECTION('',(-6.12323399573676E-017,1.0,-1.83697019872103E-016));
#130=SURFACE_STYLE_FILL_AREA(#167);
#131=ORIENTED_EDGE('',*,*,#158,.T.);
#132=ORIENTED_EDGE('',*,*,#166,.T.);
#133=ORIENTED_EDGE('',*,*,#168,.F.);
#134=ORIENTED_EDGE('',*,*,#169,.F.);
#135=CARTESIAN_POINT('',(0.0,22.5,-22.5));
#136=DIRECTION('',(-6.39093955383071E-017,0.999758397003229,0.0219806192254504));
#137=DIRECTION('',(1.0,0.0,2.907533899878E-015));
#138=SURFACE_STYLE_FILL_AREA(#170);
#139=ORIENTED_EDGE('',*,*,#159,.T.);
#140=ORIENTED_EDGE('',*,*,#169,.T.);
#141=ORIENTED_EDGE('',*,*,#171,.F.);
#142=ORIENTED_EDGE('',*,*,#161,.F.);
#143=CARTESIAN_POINT('',(0.0,-22.5,-22.5));
#144=DIRECTION('',(1.22464679914735E-016,-1.83697019872103E-016,-1.0));
#145=DIRECTION('',(0.0,-1.0,1.83697019872103E-016));
#146=SURFACE_STYLE_FILL_AREA(#172);
#147=ORIENTED_EDGE('',*,*,#162,.T.);
#148=ORIENTED_EDGE('',*,*,#171,.T.);
#149=ORIENTED_EDGE('',*,*,#168,.T.);
#150=ORIENTED_EDGE('',*,*,#165,.T.);
#151=CARTESIAN_POINT('',(4.0,1.11022302462516E-016,2.77555756156289E-016));
#152=DIRECTION('',(1.0,6.12323399573677E-017,7.49879891330927E-033));
#153=DIRECTION('',(0.0,-1.22464679914735E-016,1.0));
#154=SURFACE_STYLE_FILL_AREA(#173);
#155=FILL_AREA_STYLE('',(#174));
#156=EDGE_CURVE('',#175,#176,#177,.T.);
#157=EDGE_CURVE('',#178,#175,#179,.T.);
#158=EDGE_CURVE('',#180,#178,#181,.T.);
#159=EDGE_CURVE('',#176,#180,#182,.T.);
#160=FILL_AREA_STYLE('',(#183));
#161=EDGE_CURVE('',#176,#184,#185,.T.);
#162=EDGE_CURVE('',#186,#184,#187,.T.);
#163=EDGE_CURVE('',#175,#186,#188,.T.);
#164=FILL_AREA_STYLE('',(#189));
#165=EDGE_CURVE('',#190,#186,#191,.T.);
#166=EDGE_CURVE('',#178,#190,#192,.T.);
#167=FILL_AREA_STYLE('',(#193));
#168=EDGE_CURVE('',#194,#190,#195,.T.);
#169=EDGE_CURVE('',#180,#194,#196,.T.);
#170=FILL_AREA_STYLE('',(#197));
#171=EDGE_CURVE('',#184,#194,#198,.T.);
#172=FILL_AREA_STYLE('',(#199));
#173=FILL_AREA_STYLE('',(#200));
#174=FILL_AREA_STYLE_COLOUR('',#201);
#175=VERTEX_POINT('',#202);
#176=VERTEX_POINT('',#203);
#177=LINE('',#204,#205);
#178=VERTEX_POINT('',#206);
#179=CIRCLE('',#207,22.0);
#180=VERTEX_POINT('',#208);
#181=LINE('',#209,#210);
#182=LINE('',#211,#212);
#183=FILL_AREA_STYLE_COLOUR('',#213);
#184=VERTEX_POINT('',#214);
#185=LINE('',#215,#216);
#186=VERTEX_POINT('',#217);
#187=LINE('',#218,#219);
#188=LINE('',#220,#221);
#189=FILL_AREA_STYLE_COLOUR('',#222);
#190=VERTEX_POINT('',#223);
#191=CIRCLE('',#224,22.0);
#192=LINE('',#225,#226);
#193=FILL_AREA_STYLE_COLOUR('',#227);
#194=VERTEX_POINT('',#228);
#195=LINE('',#229,#230);
#196=LINE('',#231,#232);
#197=FILL_AREA_STYLE_COLOUR('',#233);
#198=LINE('',#234,#235);
#199=FILL_AREA_STYLE_COLOUR('',#236);
#200=FILL_AREA_STYLE_COLOUR('',#237);
#201=COLOUR_RGB('',0.61176472902298,0.61176472902298,0.650980412960052);
#202=CARTESIAN_POINT('',(0.0,-21.99468473407,0.483573622959904));
#203=CARTESIAN_POINT('',(0.0,-22.5,-22.5));
#204=CARTESIAN_POINT('',(0.0,-21.99468473407,0.483573622959904));
#205=VECTOR('',#238,22.9891278651453);
#206=CARTESIAN_POINT('',(0.0,21.99468473407,0.483573622959896));
#207=AXIS2_PLACEMENT_3D('',#239,#240,#241);
#208=CARTESIAN_POINT('',(0.0,22.5,-22.5));
#209=CARTESIAN_POINT('',(0.0,22.5,-22.5));
#210=VECTOR('',#242,22.9891278651453);
#211=CARTESIAN_POINT('',(0.0,-22.5,-22.5));
#212=VECTOR('',#243,45.0);
#213=COLOUR_RGB('',0.61176472902298,0.61176472902298,0.650980412960052);
#214=CARTESIAN_POINT('',(4.0,-22.5,-22.5));
#215=CARTESIAN_POINT('',(0.0,-22.5,-22.5));
#216=VECTOR('',#244,4.0);
#217=CARTESIAN_POINT('',(4.0,-21.99468473407,0.483573622959904));
#218=CARTESIAN_POINT('',(4.0,-21.99468473407,0.483573622959904));
#219=VECTOR('',#245,22.9891278651453);
#220=CARTESIAN_POINT('',(0.0,-21.99468473407,0.483573622959904));
#221=VECTOR('',#246,4.0);
#222=COLOUR_RGB('',0.61176472902298,0.61176472902298,0.650980412960052);
#223=CARTESIAN_POINT('',(4.0,21.99468473407,0.483573622959896));
#224=AXIS2_PLACEMENT_3D('',#247,#248,#249);
#225=CARTESIAN_POINT('',(0.0,21.99468473407,0.483573622959896));
#226=VECTOR('',#250,4.0);
#227=COLOUR_RGB('',0.61176472902298,0.61176472902298,0.650980412960052);
#228=CARTESIAN_POINT('',(4.0,22.5,-22.5));
#229=CARTESIAN_POINT('',(4.0,22.5,-22.5));
#230=VECTOR('',#251,22.9891278651453);
#231=CARTESIAN_POINT('',(0.0,22.5,-22.5));
#232=VECTOR('',#252,4.0);
#233=COLOUR_RGB('',0.61176472902298,0.61176472902298,0.650980412960052);
#234=CARTESIAN_POINT('',(4.0,-22.5,-22.5));
#235=VECTOR('',#253,45.0);
#236=COLOUR_RGB('',0.61176472902298,0.61176472902298,0.650980412960052);
#237=COLOUR_RGB('',0.61176472902298,0.61176472902298,0.650980412960052);
#238=DIRECTION('',(1.23781016829956E-016,-0.0219806192254508,-0.999758397003229));
#239=CARTESIAN_POINT('',(0.0,-1.11022302462516E-016,-2.22044604925031E-016));
#240=DIRECTION('',(1.0,6.12323399573676E-017,1.22464679914735E-016));
#241=DIRECTION('',(-6.39093955383071E-017,0.999758397003229,0.0219806192254504));
#242=DIRECTION('',(-1.21089167332183E-016,-0.0219806192254504,0.999758397003229));
#243=DIRECTION('',(-6.12323399573677E-017,1.0,-1.83697019872103E-016));
#244=DIRECTION('',(1.0,6.12323399573677E-017,1.22464679914735E-016));
#245=DIRECTION('',(1.23781016829956E-016,-0.0219806192254508,-0.999758397003229));
#246=DIRECTION('',(1.0,6.12323399573677E-017,1.22464679914735E-016));
#247=CARTESIAN_POINT('',(4.0,1.11022302462516E-016,2.77555756156289E-016));
#248=DIRECTION('',(1.0,6.12323399573676E-017,1.22464679914735E-016));
#249=DIRECTION('',(-6.39093955383071E-017,0.999758397003229,0.0219806192254504));
#250=DIRECTION('',(1.0,6.12323399573677E-017,1.22464679914735E-016));
#251=DIRECTION('',(-1.21089167332183E-016,-0.0219806192254504,0.999758397003229));
#252=DIRECTION('',(1.0,6.12323399573677E-017,1.22464679914735E-016));
#253=DIRECTION('',(-6.12323399573677E-017,1.0,-1.83697019872103E-016));
ENDSEC;
END-ISO-10303-21;
