ISO-10303-21;
HEADER;
FILE_DESCRIPTION(('STEP AP214'),'1');
FILE_NAME('cctmp_08435ACD-A3A7-4778-9732-4A2BC7C94007_2020_1_17_17_57_24_291..stp','2020-01-17T16:57:24',('Bosch Rexroth AG'),('CADClick - www.CADClick.com'),'Spatial InterOp 3D',' ','unknown authorization - (Healing Option Enabled)');
FILE_SCHEMA(('AUTOMOTIVE_DESIGN'));
ENDSEC;
DATA;
#1=MECHANICAL_DESIGN_GEOMETRIC_PRESENTATION_REPRESENTATION(' ',(#10,#11,#12,#13,#14,#15,#16,#17,#18),#6);
#2=PRODUCT_DEFINITION_CONTEXT('',#19,'design');
#3=APPLICATION_PROTOCOL_DEFINITION('INTERNATIONAL STANDARD','automotive_design',1994,#19);
#4=PRODUCT_CATEGORY_RELATIONSHIP('NONE','NONE',#20,#21);
#5=SHAPE_DEFINITION_REPRESENTATION(#22,#23);
#6= (GEOMETRIC_REPRESENTATION_CONTEXT(3)GLOBAL_UNCERTAINTY_ASSIGNED_CONTEXT((#26))GLOBAL_UNIT_ASSIGNED_CONTEXT((#28,#29,#30))REPRESENTATION_CONTEXT('NONE','WORKSPACE'));
#10=STYLED_ITEM('',(#32),#33);
#11=STYLED_ITEM('',(#34),#35);
#12=STYLED_ITEM('',(#36),#37);
#13=STYLED_ITEM('',(#38),#39);
#14=STYLED_ITEM('',(#40),#41);
#15=STYLED_ITEM('',(#42),#43);
#16=STYLED_ITEM('',(#44),#45);
#17=STYLED_ITEM('',(#46),#47);
#18=STYLED_ITEM('',(#48),#49);
#19=APPLICATION_CONTEXT(' ');
#20=PRODUCT_CATEGORY('part','NONE');
#21=PRODUCT_RELATED_PRODUCT_CATEGORY('detail',' ',(#50));
#22=PRODUCT_DEFINITION_SHAPE('NONE','NONE',#51);
#23=ADVANCED_BREP_SHAPE_REPRESENTATION('2020_01_17__17-57-24-291',(#49,#52),#6);
#26=UNCERTAINTY_MEASURE_WITH_UNIT(LENGTH_MEASURE(1.0E-006),#28,'','');
#28= (CONVERSION_BASED_UNIT('MILLIMETRE',#55)LENGTH_UNIT()NAMED_UNIT(#58));
#29= (NAMED_UNIT(#60)PLANE_ANGLE_UNIT()SI_UNIT($,.RADIAN.));
#30= (NAMED_UNIT(#60)SOLID_ANGLE_UNIT()SI_UNIT($,.STERADIAN.));
#32=PRESENTATION_STYLE_ASSIGNMENT((#66));
#33=ADVANCED_FACE('',(#67),#68,.F.);
#34=PRESENTATION_STYLE_ASSIGNMENT((#69));
#35=ADVANCED_FACE('',(#70),#71,.T.);
#36=PRESENTATION_STYLE_ASSIGNMENT((#72));
#37=ADVANCED_FACE('',(#73),#74,.T.);
#38=PRESENTATION_STYLE_ASSIGNMENT((#75));
#39=ADVANCED_FACE('',(#76),#77,.T.);
#40=PRESENTATION_STYLE_ASSIGNMENT((#78));
#41=ADVANCED_FACE('',(#79),#80,.T.);
#42=PRESENTATION_STYLE_ASSIGNMENT((#81));
#43=ADVANCED_FACE('',(#82,#83),#84,.F.);
#44=PRESENTATION_STYLE_ASSIGNMENT((#85));
#45=ADVANCED_FACE('',(#86),#87,.F.);
#46=PRESENTATION_STYLE_ASSIGNMENT((#88));
#47=ADVANCED_FACE('',(#89,#90),#91,.T.);
#48=PRESENTATION_STYLE_ASSIGNMENT((#92));
#49=MANIFOLD_SOLID_BREP('2020_01_17__17-57-24-291',#93);
#50=PRODUCT('2020_01_17__17-57-24-291','','PART--DESC',(#94));
#51=PRODUCT_DEFINITION('','NONE',#95,#2);
#52=AXIS2_PLACEMENT_3D('',#96,#97,#98);
#55=LENGTH_MEASURE_WITH_UNIT(LENGTH_MEASURE(1.0),#99);
#58=DIMENSIONAL_EXPONENTS(1.0,0.0,0.0,0.0,0.0,0.0,0.0);
#60=DIMENSIONAL_EXPONENTS(0.0,0.0,0.0,0.0,0.0,0.0,0.0);
#66=SURFACE_STYLE_USAGE(.BOTH.,#100);
#67=FACE_OUTER_BOUND('',#101,.T.);
#68=CYLINDRICAL_SURFACE('',#102,6.25);
#69=SURFACE_STYLE_USAGE(.BOTH.,#103);
#70=FACE_OUTER_BOUND('',#104,.T.);
#71=PLANE('',#105);
#72=SURFACE_STYLE_USAGE(.BOTH.,#106);
#73=FACE_OUTER_BOUND('',#107,.T.);
#74=PLANE('',#108);
#75=SURFACE_STYLE_USAGE(.BOTH.,#109);
#76=FACE_OUTER_BOUND('',#110,.T.);
#77=PLANE('',#111);
#78=SURFACE_STYLE_USAGE(.BOTH.,#112);
#79=FACE_OUTER_BOUND('',#113,.T.);
#80=PLANE('',#114);
#81=SURFACE_STYLE_USAGE(.BOTH.,#115);
#82=FACE_OUTER_BOUND('',#116,.T.);
#83=FACE_BOUND('',#117,.T.);
#84=PLANE('',#118);
#85=SURFACE_STYLE_USAGE(.BOTH.,#119);
#86=FACE_OUTER_BOUND('',#120,.T.);
#87=CYLINDRICAL_SURFACE('',#121,6.25);
#88=SURFACE_STYLE_USAGE(.BOTH.,#122);
#89=FACE_OUTER_BOUND('',#123,.T.);
#90=FACE_BOUND('',#124,.T.);
#91=PLANE('',#125);
#92=SURFACE_STYLE_USAGE(.BOTH.,#126);
#93=CLOSED_SHELL('',(#33,#35,#37,#39,#41,#43,#45,#47));
#94=PRODUCT_CONTEXT('',#19,'mechanical');
#95=PRODUCT_DEFINITION_FORMATION_WITH_SPECIFIED_SOURCE(' ','NONE',#50,.NOT_KNOWN.);
#96=CARTESIAN_POINT('',(0.0,0.0,0.0));
#97=DIRECTION('',(0.0,0.0,1.0));
#98=DIRECTION('',(1.0,0.0,0.0));
#99= (NAMED_UNIT(#58)LENGTH_UNIT()SI_UNIT(.MILLI.,.METRE.));
#100=SURFACE_SIDE_STYLE('',(#128));
#101=EDGE_LOOP('',(#129,#130,#131,#132));
#102=AXIS2_PLACEMENT_3D('',#133,#134,#135);
#103=SURFACE_SIDE_STYLE('',(#136));
#104=EDGE_LOOP('',(#137,#138,#139,#140));
#105=AXIS2_PLACEMENT_3D('',#141,#142,#143);
#106=SURFACE_SIDE_STYLE('',(#144));
#107=EDGE_LOOP('',(#145,#146,#147,#148));
#108=AXIS2_PLACEMENT_3D('',#149,#150,#151);
#109=SURFACE_SIDE_STYLE('',(#152));
#110=EDGE_LOOP('',(#153,#154,#155,#156));
#111=AXIS2_PLACEMENT_3D('',#157,#158,#159);
#112=SURFACE_SIDE_STYLE('',(#160));
#113=EDGE_LOOP('',(#161,#162,#163,#164));
#114=AXIS2_PLACEMENT_3D('',#165,#166,#167);
#115=SURFACE_SIDE_STYLE('',(#168));
#116=EDGE_LOOP('',(#169,#170,#171,#172));
#117=EDGE_LOOP('',(#173,#174));
#118=AXIS2_PLACEMENT_3D('',#175,#176,#177);
#119=SURFACE_SIDE_STYLE('',(#178));
#120=EDGE_LOOP('',(#179,#180,#181,#182));
#121=AXIS2_PLACEMENT_3D('',#183,#184,#185);
#122=SURFACE_SIDE_STYLE('',(#186));
#123=EDGE_LOOP('',(#187,#188,#189,#190));
#124=EDGE_LOOP('',(#191,#192));
#125=AXIS2_PLACEMENT_3D('',#193,#194,#195);
#126=SURFACE_SIDE_STYLE('',(#196));
#128=SURFACE_STYLE_FILL_AREA(#197);
#129=ORIENTED_EDGE('',*,*,#198,.F.);
#130=ORIENTED_EDGE('',*,*,#199,.F.);
#131=ORIENTED_EDGE('',*,*,#200,.F.);
#132=ORIENTED_EDGE('',*,*,#201,.T.);
#133=CARTESIAN_POINT('',(4.0,20.0,1.22464679914735E-015));
#134=DIRECTION('',(1.0,8.4077907859489E-048,-6.12323399573677E-017));
#135=DIRECTION('',(3.74939945665464E-033,1.0,6.12323399573677E-017));
#136=SURFACE_STYLE_FILL_AREA(#202);
#137=ORIENTED_EDGE('',*,*,#203,.F.);
#138=ORIENTED_EDGE('',*,*,#204,.F.);
#139=ORIENTED_EDGE('',*,*,#205,.F.);
#140=ORIENTED_EDGE('',*,*,#206,.T.);
#141=CARTESIAN_POINT('',(-8.88178419700125E-016,40.0,-20.0));
#142=DIRECTION('',(2.29584502165847E-049,1.0,6.12323399573677E-017));
#143=DIRECTION('',(1.0,0.0,-3.74939945665464E-033));
#144=SURFACE_STYLE_FILL_AREA(#207);
#145=ORIENTED_EDGE('',*,*,#208,.F.);
#146=ORIENTED_EDGE('',*,*,#206,.F.);
#147=ORIENTED_EDGE('',*,*,#209,.F.);
#148=ORIENTED_EDGE('',*,*,#210,.T.);
#149=CARTESIAN_POINT('',(1.33226762955019E-015,40.0,20.0));
#150=DIRECTION('',(-3.74939945665465E-033,-6.12323399573677E-017,1.0));
#151=DIRECTION('',(1.0,-6.12323399573677E-017,0.0));
#152=SURFACE_STYLE_FILL_AREA(#211);
#153=ORIENTED_EDGE('',*,*,#212,.F.);
#154=ORIENTED_EDGE('',*,*,#210,.F.);
#155=ORIENTED_EDGE('',*,*,#213,.F.);
#156=ORIENTED_EDGE('',*,*,#214,.T.);
#157=CARTESIAN_POINT('',(1.33226762955019E-015,-40.0,20.0));
#158=DIRECTION('',(-3.74939945665464E-033,-1.0,-6.12323399573677E-017));
#159=DIRECTION('',(0.0,6.12323399573677E-017,-1.0));
#160=SURFACE_STYLE_FILL_AREA(#215);
#161=ORIENTED_EDGE('',*,*,#216,.F.);
#162=ORIENTED_EDGE('',*,*,#214,.F.);
#163=ORIENTED_EDGE('',*,*,#217,.F.);
#164=ORIENTED_EDGE('',*,*,#204,.T.);
#165=CARTESIAN_POINT('',(-8.88178419700125E-016,-40.0,-20.0));
#166=DIRECTION('',(-6.12323399573677E-017,6.12323399573677E-017,-1.0));
#167=DIRECTION('',(-1.0,0.0,6.12323399573677E-017));
#168=SURFACE_STYLE_FILL_AREA(#218);
#169=ORIENTED_EDGE('',*,*,#212,.T.);
#170=ORIENTED_EDGE('',*,*,#216,.T.);
#171=ORIENTED_EDGE('',*,*,#203,.T.);
#172=ORIENTED_EDGE('',*,*,#208,.T.);
#173=ORIENTED_EDGE('',*,*,#219,.F.);
#174=ORIENTED_EDGE('',*,*,#201,.F.);
#175=CARTESIAN_POINT('',(4.0,0.0,0.0));
#176=DIRECTION('',(-1.0,0.0,6.12323399573677E-017));
#177=DIRECTION('',(0.0,1.0,0.0));
#178=SURFACE_STYLE_FILL_AREA(#220);
#179=ORIENTED_EDGE('',*,*,#198,.T.);
#180=ORIENTED_EDGE('',*,*,#219,.T.);
#181=ORIENTED_EDGE('',*,*,#200,.T.);
#182=ORIENTED_EDGE('',*,*,#221,.F.);
#183=CARTESIAN_POINT('',(4.0,20.0,1.22464679914735E-015));
#184=DIRECTION('',(1.0,8.4077907859489E-048,-6.12323399573677E-017));
#185=DIRECTION('',(3.74939945665464E-033,1.0,6.12323399573677E-017));
#186=SURFACE_STYLE_FILL_AREA(#222);
#187=ORIENTED_EDGE('',*,*,#213,.T.);
#188=ORIENTED_EDGE('',*,*,#209,.T.);
#189=ORIENTED_EDGE('',*,*,#205,.T.);
#190=ORIENTED_EDGE('',*,*,#217,.T.);
#191=ORIENTED_EDGE('',*,*,#221,.T.);
#192=ORIENTED_EDGE('',*,*,#199,.T.);
#193=CARTESIAN_POINT('',(0.0,0.0,2.44929359829471E-016));
#194=DIRECTION('',(-1.0,0.0,6.12323399573677E-017));
#195=DIRECTION('',(0.0,1.0,0.0));
#196=SURFACE_STYLE_FILL_AREA(#223);
#197=FILL_AREA_STYLE('',(#224));
#198=EDGE_CURVE('',#225,#226,#227,.T.);
#199=EDGE_CURVE('',#228,#225,#229,.T.);
#200=EDGE_CURVE('',#230,#228,#231,.T.);
#201=EDGE_CURVE('',#230,#226,#232,.T.);
#202=FILL_AREA_STYLE('',(#233));
#203=EDGE_CURVE('',#234,#235,#236,.T.);
#204=EDGE_CURVE('',#237,#234,#238,.T.);
#205=EDGE_CURVE('',#239,#237,#240,.T.);
#206=EDGE_CURVE('',#239,#235,#241,.T.);
#207=FILL_AREA_STYLE('',(#242));
#208=EDGE_CURVE('',#235,#243,#244,.T.);
#209=EDGE_CURVE('',#245,#239,#246,.T.);
#210=EDGE_CURVE('',#245,#243,#247,.T.);
#211=FILL_AREA_STYLE('',(#248));
#212=EDGE_CURVE('',#243,#249,#250,.T.);
#213=EDGE_CURVE('',#251,#245,#252,.T.);
#214=EDGE_CURVE('',#251,#249,#253,.T.);
#215=FILL_AREA_STYLE('',(#254));
#216=EDGE_CURVE('',#249,#234,#255,.T.);
#217=EDGE_CURVE('',#237,#251,#256,.T.);
#218=FILL_AREA_STYLE('',(#257));
#219=EDGE_CURVE('',#226,#230,#258,.T.);
#220=FILL_AREA_STYLE('',(#259));
#221=EDGE_CURVE('',#225,#228,#260,.T.);
#222=FILL_AREA_STYLE('',(#261));
#223=FILL_AREA_STYLE('',(#262));
#224=FILL_AREA_STYLE_COLOUR('',#263);
#225=VERTEX_POINT('',#264);
#226=VERTEX_POINT('',#265);
#227=LINE('',#266,#267);
#228=VERTEX_POINT('',#268);
#229=CIRCLE('',#269,6.25);
#230=VERTEX_POINT('',#270);
#231=LINE('',#271,#272);
#232=CIRCLE('',#273,6.25);
#233=FILL_AREA_STYLE_COLOUR('',#274);
#234=VERTEX_POINT('',#275);
#235=VERTEX_POINT('',#276);
#236=LINE('',#277,#278);
#237=VERTEX_POINT('',#279);
#238=LINE('',#280,#281);
#239=VERTEX_POINT('',#282);
#240=LINE('',#283,#284);
#241=LINE('',#285,#286);
#242=FILL_AREA_STYLE_COLOUR('',#287);
#243=VERTEX_POINT('',#288);
#244=LINE('',#289,#290);
#245=VERTEX_POINT('',#291);
#246=LINE('',#292,#293);
#247=LINE('',#294,#295);
#248=FILL_AREA_STYLE_COLOUR('',#296);
#249=VERTEX_POINT('',#297);
#250=LINE('',#298,#299);
#251=VERTEX_POINT('',#300);
#252=LINE('',#301,#302);
#253=LINE('',#303,#304);
#254=FILL_AREA_STYLE_COLOUR('',#305);
#255=LINE('',#306,#307);
#256=LINE('',#308,#309);
#257=FILL_AREA_STYLE_COLOUR('',#310);
#258=CIRCLE('',#311,6.25);
#259=FILL_AREA_STYLE_COLOUR('',#312);
#260=CIRCLE('',#313,6.25);
#261=FILL_AREA_STYLE_COLOUR('',#314);
#262=FILL_AREA_STYLE_COLOUR('',#315);
#263=COLOUR_RGB('',0.0117647061124444,0.0196078438311815,0.0392156876623631);
#264=CARTESIAN_POINT('',(0.0,26.25,1.85227828371037E-015));
#265=CARTESIAN_POINT('',(4.0,26.25,1.6073489238809E-015));
#266=CARTESIAN_POINT('',(4.0,26.25,8.41944674413803E-016));
#267=VECTOR('',#316,1.0);
#268=CARTESIAN_POINT('',(2.34337466040916E-032,13.75,1.85227828371037E-015));
#269=AXIS2_PLACEMENT_3D('',#317,#318,#319);
#270=CARTESIAN_POINT('',(4.0,13.75,1.6073489238809E-015));
#271=CARTESIAN_POINT('',(4.0,13.75,1.6073489238809E-015));
#272=VECTOR('',#320,1.0);
#273=AXIS2_PLACEMENT_3D('',#321,#322,#323);
#274=COLOUR_RGB('',0.0117647061124444,0.0196078438311815,0.0392156876623631);
#275=CARTESIAN_POINT('',(4.0,40.0,-20.0));
#276=CARTESIAN_POINT('',(4.0,40.0,20.0));
#277=CARTESIAN_POINT('',(4.0,40.0,-10.0));
#278=VECTOR('',#324,40.0);
#279=CARTESIAN_POINT('',(-8.88178419700125E-016,40.0,-20.0));
#280=CARTESIAN_POINT('',(-8.88178419700125E-016,40.0,-20.0));
#281=VECTOR('',#325,4.0);
#282=CARTESIAN_POINT('',(1.33226762955019E-015,40.0,20.0));
#283=CARTESIAN_POINT('',(-8.88178419700125E-016,40.0,-10.0));
#284=VECTOR('',#326,40.0);
#285=CARTESIAN_POINT('',(1.33226762955019E-015,40.0,20.0));
#286=VECTOR('',#327,4.0);
#287=COLOUR_RGB('',0.0117647061124444,0.0196078438311815,0.0392156876623631);
#288=CARTESIAN_POINT('',(4.0,-40.0,20.0));
#289=CARTESIAN_POINT('',(4.0,20.0,20.0));
#290=VECTOR('',#328,80.0);
#291=CARTESIAN_POINT('',(1.33226762955019E-015,-40.0,20.0));
#292=CARTESIAN_POINT('',(1.33226762955019E-015,20.0,20.0));
#293=VECTOR('',#329,80.0);
#294=CARTESIAN_POINT('',(1.33226762955019E-015,-40.0,20.0));
#295=VECTOR('',#330,4.0);
#296=COLOUR_RGB('',0.0117647061124444,0.0196078438311815,0.0392156876623631);
#297=CARTESIAN_POINT('',(4.0,-40.0,-20.0));
#298=CARTESIAN_POINT('',(4.0,-40.0,10.0));
#299=VECTOR('',#331,40.0);
#300=CARTESIAN_POINT('',(-8.88178419700125E-016,-40.0,-20.0));
#301=CARTESIAN_POINT('',(4.44089209850063E-016,-40.0,10.0));
#302=VECTOR('',#332,40.0);
#303=CARTESIAN_POINT('',(-8.88178419700125E-016,-40.0,-20.0));
#304=VECTOR('',#333,4.0);
#305=COLOUR_RGB('',0.0117647061124444,0.0196078438311815,0.0392156876623631);
#306=CARTESIAN_POINT('',(4.0,-20.0,-20.0));
#307=VECTOR('',#334,80.0);
#308=CARTESIAN_POINT('',(-8.88178419700125E-016,-20.0,-20.0));
#309=VECTOR('',#335,80.0);
#310=COLOUR_RGB('',0.0117647061124444,0.0196078438311815,0.0392156876623631);
#311=AXIS2_PLACEMENT_3D('',#336,#337,#338);
#312=COLOUR_RGB('',0.0117647061124444,0.0196078438311815,0.0392156876623631);
#313=AXIS2_PLACEMENT_3D('',#339,#340,#341);
#314=COLOUR_RGB('',0.0117647061124444,0.0196078438311815,0.0392156876623631);
#315=COLOUR_RGB('',0.0117647061124444,0.0196078438311815,0.0392156876623631);
#316=DIRECTION('',(1.0,8.96831017167883E-048,-6.12323399573677E-017));
#317=CARTESIAN_POINT('',(0.0,20.0,1.46957615897682E-015));
#318=DIRECTION('',(1.0,8.4077907859489E-048,-6.12323399573677E-017));
#319=DIRECTION('',(3.74939945665464E-033,1.0,6.12323399573677E-017));
#320=DIRECTION('',(-1.0,-8.96831017167883E-048,6.12323399573677E-017));
#321=CARTESIAN_POINT('',(4.0,20.0,1.22464679914735E-015));
#322=DIRECTION('',(1.0,8.4077907859489E-048,-6.12323399573677E-017));
#323=DIRECTION('',(3.74939945665464E-033,1.0,6.12323399573677E-017));
#324=DIRECTION('',(6.12323399573677E-017,-6.12323399573677E-017,1.0));
#325=DIRECTION('',(1.0,0.0,-6.12323399573677E-017));
#326=DIRECTION('',(-6.12323399573677E-017,6.12323399573677E-017,-1.0));
#327=DIRECTION('',(1.0,0.0,-6.12323399573677E-017));
#328=DIRECTION('',(-3.74939945665464E-033,-1.0,-6.12323399573677E-017));
#329=DIRECTION('',(3.74939945665464E-033,1.0,6.12323399573677E-017));
#330=DIRECTION('',(1.0,0.0,-6.12323399573677E-017));
#331=DIRECTION('',(-6.12323399573677E-017,6.12323399573677E-017,-1.0));
#332=DIRECTION('',(6.12323399573677E-017,-6.12323399573677E-017,1.0));
#333=DIRECTION('',(1.0,0.0,-6.12323399573677E-017));
#334=DIRECTION('',(3.74939945665464E-033,1.0,6.12323399573677E-017));
#335=DIRECTION('',(-3.74939945665464E-033,-1.0,-6.12323399573677E-017));
#336=CARTESIAN_POINT('',(4.0,20.0,1.22464679914735E-015));
#337=DIRECTION('',(1.0,8.4077907859489E-048,-6.12323399573677E-017));
#338=DIRECTION('',(3.74939945665464E-033,1.0,6.12323399573677E-017));
#339=CARTESIAN_POINT('',(0.0,20.0,1.46957615897682E-015));
#340=DIRECTION('',(1.0,8.4077907859489E-048,-6.12323399573677E-017));
#341=DIRECTION('',(3.74939945665464E-033,1.0,6.12323399573677E-017));
ENDSEC;
END-ISO-10303-21;
