ISO-10303-21;
HEADER;
FILE_DESCRIPTION(('STEP AP214'),'1');
FILE_NAME('cctmp_2D46787A-1174-4B94-B90B-E001400AF6E7_2020_1_17_17_52_56_63..stp','2020-01-17T16:52:56',('Bosch Rexroth AG'),('CADClick - www.CADClick.com'),'Spatial InterOp 3D',' ','unknown authorization - (Healing Option Enabled)');
FILE_SCHEMA(('AUTOMOTIVE_DESIGN'));
ENDSEC;
DATA;
#1=MECHANICAL_DESIGN_GEOMETRIC_PRESENTATION_REPRESENTATION(' ',(#10,#11,#12,#13,#14,#15,#16,#17),#6);
#2=PRODUCT_DEFINITION_CONTEXT('',#18,'design');
#3=APPLICATION_PROTOCOL_DEFINITION('INTERNATIONAL STANDARD','automotive_design',1994,#18);
#4=PRODUCT_CATEGORY_RELATIONSHIP('NONE','NONE',#19,#20);
#5=SHAPE_DEFINITION_REPRESENTATION(#21,#22);
#6= (GEOMETRIC_REPRESENTATION_CONTEXT(3)GLOBAL_UNCERTAINTY_ASSIGNED_CONTEXT((#25))GLOBAL_UNIT_ASSIGNED_CONTEXT((#27,#28,#29))REPRESENTATION_CONTEXT('NONE','WORKSPACE'));
#10=STYLED_ITEM('',(#31),#32);
#11=STYLED_ITEM('',(#33),#34);
#12=STYLED_ITEM('',(#35),#36);
#13=STYLED_ITEM('',(#37),#38);
#14=STYLED_ITEM('',(#39),#40);
#15=STYLED_ITEM('',(#41),#42);
#16=STYLED_ITEM('',(#43),#44);
#17=STYLED_ITEM('',(#45),#46);
#18=APPLICATION_CONTEXT(' ');
#19=PRODUCT_CATEGORY('part','NONE');
#20=PRODUCT_RELATED_PRODUCT_CATEGORY('detail',' ',(#47));
#21=PRODUCT_DEFINITION_SHAPE('NONE','NONE',#48);
#22=ADVANCED_BREP_SHAPE_REPRESENTATION('2020_01_17__17-52-56-063',(#46,#49),#6);
#25=UNCERTAINTY_MEASURE_WITH_UNIT(LENGTH_MEASURE(1.0E-006),#27,'','');
#27= (CONVERSION_BASED_UNIT('MILLIMETRE',#52)LENGTH_UNIT()NAMED_UNIT(#55));
#28= (NAMED_UNIT(#57)PLANE_ANGLE_UNIT()SI_UNIT($,.RADIAN.));
#29= (NAMED_UNIT(#57)SOLID_ANGLE_UNIT()SI_UNIT($,.STERADIAN.));
#31=PRESENTATION_STYLE_ASSIGNMENT((#63));
#32=ADVANCED_FACE('',(#64),#65,.T.);
#33=PRESENTATION_STYLE_ASSIGNMENT((#66));
#34=ADVANCED_FACE('',(#67),#68,.T.);
#35=PRESENTATION_STYLE_ASSIGNMENT((#69));
#36=ADVANCED_FACE('',(#70),#71,.T.);
#37=PRESENTATION_STYLE_ASSIGNMENT((#72));
#38=ADVANCED_FACE('',(#73),#74,.T.);
#39=PRESENTATION_STYLE_ASSIGNMENT((#75));
#40=ADVANCED_FACE('',(#76),#77,.T.);
#41=PRESENTATION_STYLE_ASSIGNMENT((#78));
#42=ADVANCED_FACE('',(#79),#80,.F.);
#43=PRESENTATION_STYLE_ASSIGNMENT((#81));
#44=ADVANCED_FACE('',(#82),#83,.T.);
#45=PRESENTATION_STYLE_ASSIGNMENT((#84));
#46=MANIFOLD_SOLID_BREP('2020_01_17__17-52-56-063',#85);
#47=PRODUCT('2020_01_17__17-52-56-063','','PART--DESC',(#86));
#48=PRODUCT_DEFINITION('','NONE',#87,#2);
#49=AXIS2_PLACEMENT_3D('',#88,#89,#90);
#52=LENGTH_MEASURE_WITH_UNIT(LENGTH_MEASURE(1.0),#91);
#55=DIMENSIONAL_EXPONENTS(1.0,0.0,0.0,0.0,0.0,0.0,0.0);
#57=DIMENSIONAL_EXPONENTS(0.0,0.0,0.0,0.0,0.0,0.0,0.0);
#63=SURFACE_STYLE_USAGE(.BOTH.,#92);
#64=FACE_OUTER_BOUND('',#93,.T.);
#65=PLANE('',#94);
#66=SURFACE_STYLE_USAGE(.BOTH.,#95);
#67=FACE_OUTER_BOUND('',#96,.T.);
#68=PLANE('',#97);
#69=SURFACE_STYLE_USAGE(.BOTH.,#98);
#70=FACE_OUTER_BOUND('',#99,.T.);
#71=PLANE('',#100);
#72=SURFACE_STYLE_USAGE(.BOTH.,#101);
#73=FACE_OUTER_BOUND('',#102,.T.);
#74=PLANE('',#103);
#75=SURFACE_STYLE_USAGE(.BOTH.,#104);
#76=FACE_OUTER_BOUND('',#105,.T.);
#77=CYLINDRICAL_SURFACE('',#106,33.35);
#78=SURFACE_STYLE_USAGE(.BOTH.,#107);
#79=FACE_OUTER_BOUND('',#108,.T.);
#80=PLANE('',#109);
#81=SURFACE_STYLE_USAGE(.BOTH.,#110);
#82=FACE_OUTER_BOUND('',#111,.T.);
#83=PLANE('',#112);
#84=SURFACE_STYLE_USAGE(.BOTH.,#113);
#85=CLOSED_SHELL('',(#32,#34,#36,#38,#40,#42,#44));
#86=PRODUCT_CONTEXT('',#18,'mechanical');
#87=PRODUCT_DEFINITION_FORMATION_WITH_SPECIFIED_SOURCE(' ','NONE',#47,.NOT_KNOWN.);
#88=CARTESIAN_POINT('',(0.0,0.0,0.0));
#89=DIRECTION('',(0.0,0.0,1.0));
#90=DIRECTION('',(1.0,0.0,0.0));
#91= (NAMED_UNIT(#55)LENGTH_UNIT()SI_UNIT(.MILLI.,.METRE.));
#92=SURFACE_SIDE_STYLE('',(#115));
#93=EDGE_LOOP('',(#116,#117,#118,#119));
#94=AXIS2_PLACEMENT_3D('',#120,#121,#122);
#95=SURFACE_SIDE_STYLE('',(#123));
#96=EDGE_LOOP('',(#124,#125,#126,#127));
#97=AXIS2_PLACEMENT_3D('',#128,#129,#130);
#98=SURFACE_SIDE_STYLE('',(#131));
#99=EDGE_LOOP('',(#132,#133,#134,#135));
#100=AXIS2_PLACEMENT_3D('',#136,#137,#138);
#101=SURFACE_SIDE_STYLE('',(#139));
#102=EDGE_LOOP('',(#140,#141,#142,#143));
#103=AXIS2_PLACEMENT_3D('',#144,#145,#146);
#104=SURFACE_SIDE_STYLE('',(#147));
#105=EDGE_LOOP('',(#148,#149,#150,#151));
#106=AXIS2_PLACEMENT_3D('',#152,#153,#154);
#107=SURFACE_SIDE_STYLE('',(#155));
#108=EDGE_LOOP('',(#156,#157,#158,#159,#160));
#109=AXIS2_PLACEMENT_3D('',#161,#162,#163);
#110=SURFACE_SIDE_STYLE('',(#164));
#111=EDGE_LOOP('',(#165,#166,#167,#168,#169));
#112=AXIS2_PLACEMENT_3D('',#170,#171,#172);
#113=SURFACE_SIDE_STYLE('',(#173));
#115=SURFACE_STYLE_FILL_AREA(#174);
#116=ORIENTED_EDGE('',*,*,#175,.F.);
#117=ORIENTED_EDGE('',*,*,#176,.F.);
#118=ORIENTED_EDGE('',*,*,#177,.F.);
#119=ORIENTED_EDGE('',*,*,#178,.T.);
#120=CARTESIAN_POINT('',(4.0,20.0,20.0));
#121=DIRECTION('',(1.83667601732676E-048,1.0,1.49975978266185E-032));
#122=DIRECTION('',(1.0,0.0,-1.22464679914735E-016));
#123=SURFACE_STYLE_FILL_AREA(#179);
#124=ORIENTED_EDGE('',*,*,#180,.F.);
#125=ORIENTED_EDGE('',*,*,#178,.F.);
#126=ORIENTED_EDGE('',*,*,#181,.F.);
#127=ORIENTED_EDGE('',*,*,#182,.T.);
#128=CARTESIAN_POINT('',(4.0,20.0,-20.0));
#129=DIRECTION('',(1.83697019872103E-016,-8.32667268468867E-017,-1.0));
#130=DIRECTION('',(0.0,-1.0,8.32667268468867E-017));
#131=SURFACE_STYLE_FILL_AREA(#183);
#132=ORIENTED_EDGE('',*,*,#184,.F.);
#133=ORIENTED_EDGE('',*,*,#182,.F.);
#134=ORIENTED_EDGE('',*,*,#185,.F.);
#135=ORIENTED_EDGE('',*,*,#186,.T.);
#136=CARTESIAN_POINT('',(4.0,-20.0,-20.0));
#137=DIRECTION('',(-1.22464679914735E-016,-1.0,-1.3356066461656E-015));
#138=DIRECTION('',(0.0,1.3356066461656E-015,-1.0));
#139=SURFACE_STYLE_FILL_AREA(#187);
#140=ORIENTED_EDGE('',*,*,#188,.F.);
#141=ORIENTED_EDGE('',*,*,#189,.F.);
#142=ORIENTED_EDGE('',*,*,#190,.F.);
#143=ORIENTED_EDGE('',*,*,#176,.T.);
#144=CARTESIAN_POINT('',(4.0,13.35,20.0));
#145=DIRECTION('',(-2.45346960621995E-031,1.3356066461656E-015,1.0));
#146=DIRECTION('',(1.0,1.83697019872103E-016,0.0));
#147=SURFACE_STYLE_FILL_AREA(#191);
#148=ORIENTED_EDGE('',*,*,#192,.F.);
#149=ORIENTED_EDGE('',*,*,#186,.F.);
#150=ORIENTED_EDGE('',*,*,#193,.F.);
#151=ORIENTED_EDGE('',*,*,#189,.T.);
#152=CARTESIAN_POINT('',(4.0,13.35,-13.35));
#153=DIRECTION('',(1.0,-1.22464679914735E-016,1.83697019872103E-016));
#154=DIRECTION('',(1.83697019872103E-016,-2.24963967399279E-032,-1.0));
#155=SURFACE_STYLE_FILL_AREA(#194);
#156=ORIENTED_EDGE('',*,*,#185,.T.);
#157=ORIENTED_EDGE('',*,*,#181,.T.);
#158=ORIENTED_EDGE('',*,*,#177,.T.);
#159=ORIENTED_EDGE('',*,*,#190,.T.);
#160=ORIENTED_EDGE('',*,*,#193,.T.);
#161=CARTESIAN_POINT('',(4.0,0.0,0.0));
#162=DIRECTION('',(-1.0,1.22464679914735E-016,-1.83697019872103E-016));
#163=DIRECTION('',(-1.83697019872103E-016,0.0,1.0));
#164=SURFACE_STYLE_FILL_AREA(#195);
#165=ORIENTED_EDGE('',*,*,#184,.T.);
#166=ORIENTED_EDGE('',*,*,#192,.T.);
#167=ORIENTED_EDGE('',*,*,#188,.T.);
#168=ORIENTED_EDGE('',*,*,#175,.T.);
#169=ORIENTED_EDGE('',*,*,#180,.T.);
#170=CARTESIAN_POINT('',(0.0,4.89858719658941E-016,-7.34788079488412E-016));
#171=DIRECTION('',(-1.0,1.22464679914735E-016,-1.83697019872103E-016));
#172=DIRECTION('',(-1.83697019872103E-016,0.0,1.0));
#173=SURFACE_STYLE_FILL_AREA(#196);
#174=FILL_AREA_STYLE('',(#197));
#175=EDGE_CURVE('',#198,#199,#200,.T.);
#176=EDGE_CURVE('',#201,#198,#202,.T.);
#177=EDGE_CURVE('',#203,#201,#204,.T.);
#178=EDGE_CURVE('',#203,#199,#205,.T.);
#179=FILL_AREA_STYLE('',(#206));
#180=EDGE_CURVE('',#199,#207,#208,.T.);
#181=EDGE_CURVE('',#209,#203,#210,.T.);
#182=EDGE_CURVE('',#209,#207,#211,.T.);
#183=FILL_AREA_STYLE('',(#212));
#184=EDGE_CURVE('',#207,#213,#214,.T.);
#185=EDGE_CURVE('',#215,#209,#216,.T.);
#186=EDGE_CURVE('',#215,#213,#217,.T.);
#187=FILL_AREA_STYLE('',(#218));
#188=EDGE_CURVE('',#219,#198,#220,.T.);
#189=EDGE_CURVE('',#221,#219,#222,.T.);
#190=EDGE_CURVE('',#201,#221,#223,.T.);
#191=FILL_AREA_STYLE('',(#224));
#192=EDGE_CURVE('',#213,#219,#225,.T.);
#193=EDGE_CURVE('',#221,#215,#226,.T.);
#194=FILL_AREA_STYLE('',(#227));
#195=FILL_AREA_STYLE('',(#228));
#196=FILL_AREA_STYLE('',(#229));
#197=FILL_AREA_STYLE_COLOUR('',#230);
#198=VERTEX_POINT('',#231);
#199=VERTEX_POINT('',#232);
#200=LINE('',#233,#234);
#201=VERTEX_POINT('',#235);
#202=LINE('',#236,#237);
#203=VERTEX_POINT('',#238);
#204=LINE('',#239,#240);
#205=LINE('',#241,#242);
#206=FILL_AREA_STYLE_COLOUR('',#243);
#207=VERTEX_POINT('',#244);
#208=LINE('',#245,#246);
#209=VERTEX_POINT('',#247);
#210=LINE('',#248,#249);
#211=LINE('',#250,#251);
#212=FILL_AREA_STYLE_COLOUR('',#252);
#213=VERTEX_POINT('',#253);
#214=LINE('',#254,#255);
#215=VERTEX_POINT('',#256);
#216=LINE('',#257,#258);
#217=LINE('',#259,#260);
#218=FILL_AREA_STYLE_COLOUR('',#261);
#219=VERTEX_POINT('',#262);
#220=LINE('',#263,#264);
#221=VERTEX_POINT('',#265);
#222=LINE('',#266,#267);
#223=LINE('',#268,#269);
#224=FILL_AREA_STYLE_COLOUR('',#270);
#225=CIRCLE('',#271,33.35);
#226=CIRCLE('',#272,33.35);
#227=FILL_AREA_STYLE_COLOUR('',#273);
#228=FILL_AREA_STYLE_COLOUR('',#274);
#229=FILL_AREA_STYLE_COLOUR('',#275);
#230=COLOUR_RGB('',0.61176472902298,0.61176472902298,0.650980412960052);
#231=CARTESIAN_POINT('',(0.0,20.0,20.0));
#232=CARTESIAN_POINT('',(0.0,20.0,-20.0));
#233=CARTESIAN_POINT('',(0.0,20.0,10.0));
#234=VECTOR('',#276,40.0);
#235=CARTESIAN_POINT('',(4.0,20.0,20.0));
#236=CARTESIAN_POINT('',(4.0,20.0,20.0));
#237=VECTOR('',#277,4.0);
#238=CARTESIAN_POINT('',(4.0,20.0,-20.0));
#239=CARTESIAN_POINT('',(4.0,20.0,10.0));
#240=VECTOR('',#278,40.0);
#241=CARTESIAN_POINT('',(4.0,20.0,-20.0));
#242=VECTOR('',#279,4.0);
#243=COLOUR_RGB('',0.61176472902298,0.61176472902298,0.650980412960052);
#244=CARTESIAN_POINT('',(0.0,-20.0,-20.0));
#245=CARTESIAN_POINT('',(0.0,10.0,-20.0));
#246=VECTOR('',#280,40.0);
#247=CARTESIAN_POINT('',(4.0,-20.0,-20.0));
#248=CARTESIAN_POINT('',(4.0,10.0,-20.0));
#249=VECTOR('',#281,40.0);
#250=CARTESIAN_POINT('',(4.0,-20.0,-20.0));
#251=VECTOR('',#282,4.0);
#252=COLOUR_RGB('',0.61176472902298,0.61176472902298,0.650980412960052);
#253=CARTESIAN_POINT('',(0.0,-20.0,-13.35));
#254=CARTESIAN_POINT('',(0.0,-20.0,-10.0));
#255=VECTOR('',#283,6.65);
#256=CARTESIAN_POINT('',(4.0,-20.0,-13.35));
#257=CARTESIAN_POINT('',(4.0,-20.0,-10.0));
#258=VECTOR('',#284,6.65);
#259=CARTESIAN_POINT('',(4.0,-20.0,-13.35));
#260=VECTOR('',#285,4.0);
#261=COLOUR_RGB('',0.61176472902298,0.61176472902298,0.650980412960052);
#262=CARTESIAN_POINT('',(0.0,13.35,20.0));
#263=CARTESIAN_POINT('',(0.0,6.67500000000001,20.0));
#264=VECTOR('',#286,6.65);
#265=CARTESIAN_POINT('',(4.0,13.35,20.0));
#266=CARTESIAN_POINT('',(4.0,13.35,20.0));
#267=VECTOR('',#287,4.0);
#268=CARTESIAN_POINT('',(4.0,6.67500000000001,20.0));
#269=VECTOR('',#288,6.65);
#270=COLOUR_RGB('',0.61176472902298,0.61176472902298,0.650980412960052);
#271=AXIS2_PLACEMENT_3D('',#289,#290,#291);
#272=AXIS2_PLACEMENT_3D('',#292,#293,#294);
#273=COLOUR_RGB('',0.61176472902298,0.61176472902298,0.650980412960052);
#274=COLOUR_RGB('',0.61176472902298,0.61176472902298,0.650980412960052);
#275=COLOUR_RGB('',0.61176472902298,0.61176472902298,0.650980412960052);
#276=DIRECTION('',(1.83697019872103E-016,-2.24963967399279E-032,-1.0));
#277=DIRECTION('',(-1.0,1.22464679914735E-016,-1.83697019872103E-016));
#278=DIRECTION('',(-1.83697019872103E-016,2.24963967399279E-032,1.0));
#279=DIRECTION('',(-1.0,1.22464679914735E-016,-1.83697019872103E-016));
#280=DIRECTION('',(-1.22464679914735E-016,-1.0,8.32667268468867E-017));
#281=DIRECTION('',(1.22464679914735E-016,1.0,-8.32667268468867E-017));
#282=DIRECTION('',(-1.0,1.22464679914735E-016,-1.83697019872103E-016));
#283=DIRECTION('',(-1.83697019872103E-016,-1.3356066461656E-015,1.0));
#284=DIRECTION('',(1.83697019872103E-016,1.3356066461656E-015,-1.0));
#285=DIRECTION('',(-1.0,1.22464679914735E-016,-1.83697019872103E-016));
#286=DIRECTION('',(1.22464679914736E-016,1.0,-1.3356066461656E-015));
#287=DIRECTION('',(-1.0,1.22464679914735E-016,-1.83697019872103E-016));
#288=DIRECTION('',(-1.22464679914736E-016,-1.0,1.3356066461656E-015));
#289=CARTESIAN_POINT('',(0.0,13.35,-13.35));
#290=DIRECTION('',(-1.0,1.22464679914735E-016,-1.83697019872103E-016));
#291=DIRECTION('',(1.83697019872103E-016,-2.24963967399279E-032,-1.0));
#292=CARTESIAN_POINT('',(4.0,13.35,-13.35));
#293=DIRECTION('',(1.0,-1.22464679914735E-016,1.83697019872103E-016));
#294=DIRECTION('',(1.83697019872103E-016,-2.24963967399279E-032,-1.0));
ENDSEC;
END-ISO-10303-21;
