ISO-10303-21;
HEADER;
FILE_DESCRIPTION(('STEP AP214'),'1');
FILE_NAME('cctmp_C2A430D0-589C-4F0F-A910-B7A57E64D909_2020_1_17_17_41_1_788..stp','2020-01-17T16:41:01',('Bosch Rexroth AG'),('CADClick - www.CADClick.com'),'Spatial InterOp 3D',' ','unknown authorization - (Healing Option Enabled)');
FILE_SCHEMA(('AUTOMOTIVE_DESIGN'));
ENDSEC;
DATA;
#1=MECHANICAL_DESIGN_GEOMETRIC_PRESENTATION_REPRESENTATION(' ',(#10,#11,#12,#13,#14,#15,#16,#17),#6);
#2=PRODUCT_DEFINITION_CONTEXT('',#18,'design');
#3=APPLICATION_PROTOCOL_DEFINITION('INTERNATIONAL STANDARD','automotive_design',1994,#18);
#4=PRODUCT_CATEGORY_RELATIONSHIP('NONE','NONE',#19,#20);
#5=SHAPE_DEFINITION_REPRESENTATION(#21,#22);
#6= (GEOMETRIC_REPRESENTATION_CONTEXT(3)GLOBAL_UNCERTAINTY_ASSIGNED_CONTEXT((#25))GLOBAL_UNIT_ASSIGNED_CONTEXT((#27,#28,#29))REPRESENTATION_CONTEXT('NONE','WORKSPACE'));
#10=STYLED_ITEM('',(#31),#32);
#11=STYLED_ITEM('',(#33),#34);
#12=STYLED_ITEM('',(#35),#36);
#13=STYLED_ITEM('',(#37),#38);
#14=STYLED_ITEM('',(#39),#40);
#15=STYLED_ITEM('',(#41),#42);
#16=STYLED_ITEM('',(#43),#44);
#17=STYLED_ITEM('',(#45),#46);
#18=APPLICATION_CONTEXT(' ');
#19=PRODUCT_CATEGORY('part','NONE');
#20=PRODUCT_RELATED_PRODUCT_CATEGORY('detail',' ',(#47));
#21=PRODUCT_DEFINITION_SHAPE('NONE','NONE',#48);
#22=ADVANCED_BREP_SHAPE_REPRESENTATION('2020_01_17__17-41-01-788',(#46,#49),#6);
#25=UNCERTAINTY_MEASURE_WITH_UNIT(LENGTH_MEASURE(1.0E-006),#27,'','');
#27= (CONVERSION_BASED_UNIT('MILLIMETRE',#52)LENGTH_UNIT()NAMED_UNIT(#55));
#28= (NAMED_UNIT(#57)PLANE_ANGLE_UNIT()SI_UNIT($,.RADIAN.));
#29= (NAMED_UNIT(#57)SOLID_ANGLE_UNIT()SI_UNIT($,.STERADIAN.));
#31=PRESENTATION_STYLE_ASSIGNMENT((#63));
#32=ADVANCED_FACE('',(#64),#65,.F.);
#33=PRESENTATION_STYLE_ASSIGNMENT((#66));
#34=ADVANCED_FACE('',(#67),#68,.T.);
#35=PRESENTATION_STYLE_ASSIGNMENT((#69));
#36=ADVANCED_FACE('',(#70),#71,.T.);
#37=PRESENTATION_STYLE_ASSIGNMENT((#72));
#38=ADVANCED_FACE('',(#73),#74,.T.);
#39=PRESENTATION_STYLE_ASSIGNMENT((#75));
#40=ADVANCED_FACE('',(#76),#77,.T.);
#41=PRESENTATION_STYLE_ASSIGNMENT((#78));
#42=ADVANCED_FACE('',(#79),#80,.T.);
#43=PRESENTATION_STYLE_ASSIGNMENT((#81));
#44=ADVANCED_FACE('',(#82),#83,.T.);
#45=PRESENTATION_STYLE_ASSIGNMENT((#84));
#46=MANIFOLD_SOLID_BREP('2020_01_17__17-41-01-788',#85);
#47=PRODUCT('2020_01_17__17-41-01-788','','PART--DESC',(#86));
#48=PRODUCT_DEFINITION('','NONE',#87,#2);
#49=AXIS2_PLACEMENT_3D('',#88,#89,#90);
#52=LENGTH_MEASURE_WITH_UNIT(LENGTH_MEASURE(1.0),#91);
#55=DIMENSIONAL_EXPONENTS(1.0,0.0,0.0,0.0,0.0,0.0,0.0);
#57=DIMENSIONAL_EXPONENTS(0.0,0.0,0.0,0.0,0.0,0.0,0.0);
#63=SURFACE_STYLE_USAGE(.BOTH.,#92);
#64=FACE_OUTER_BOUND('',#93,.T.);
#65=PLANE('',#94);
#66=SURFACE_STYLE_USAGE(.BOTH.,#95);
#67=FACE_OUTER_BOUND('',#96,.T.);
#68=PLANE('',#97);
#69=SURFACE_STYLE_USAGE(.BOTH.,#98);
#70=FACE_OUTER_BOUND('',#99,.T.);
#71=PLANE('',#100);
#72=SURFACE_STYLE_USAGE(.BOTH.,#101);
#73=FACE_OUTER_BOUND('',#102,.T.);
#74=PLANE('',#103);
#75=SURFACE_STYLE_USAGE(.BOTH.,#104);
#76=FACE_OUTER_BOUND('',#105,.T.);
#77=PLANE('',#106);
#78=SURFACE_STYLE_USAGE(.BOTH.,#107);
#79=FACE_OUTER_BOUND('',#108,.T.);
#80=CYLINDRICAL_SURFACE('',#109,25.0);
#81=SURFACE_STYLE_USAGE(.BOTH.,#110);
#82=FACE_OUTER_BOUND('',#111,.T.);
#83=PLANE('',#112);
#84=SURFACE_STYLE_USAGE(.BOTH.,#113);
#85=CLOSED_SHELL('',(#32,#34,#36,#38,#40,#42,#44));
#86=PRODUCT_CONTEXT('',#18,'mechanical');
#87=PRODUCT_DEFINITION_FORMATION_WITH_SPECIFIED_SOURCE(' ','NONE',#47,.NOT_KNOWN.);
#88=CARTESIAN_POINT('',(0.0,0.0,0.0));
#89=DIRECTION('',(0.0,0.0,1.0));
#90=DIRECTION('',(1.0,0.0,0.0));
#91= (NAMED_UNIT(#55)LENGTH_UNIT()SI_UNIT(.MILLI.,.METRE.));
#92=SURFACE_SIDE_STYLE('',(#115));
#93=EDGE_LOOP('',(#116,#117,#118,#119,#120));
#94=AXIS2_PLACEMENT_3D('',#121,#122,#123);
#95=SURFACE_SIDE_STYLE('',(#124));
#96=EDGE_LOOP('',(#125,#126,#127,#128));
#97=AXIS2_PLACEMENT_3D('',#129,#130,#131);
#98=SURFACE_SIDE_STYLE('',(#132));
#99=EDGE_LOOP('',(#133,#134,#135,#136));
#100=AXIS2_PLACEMENT_3D('',#137,#138,#139);
#101=SURFACE_SIDE_STYLE('',(#140));
#102=EDGE_LOOP('',(#141,#142,#143,#144));
#103=AXIS2_PLACEMENT_3D('',#145,#146,#147);
#104=SURFACE_SIDE_STYLE('',(#148));
#105=EDGE_LOOP('',(#149,#150,#151,#152));
#106=AXIS2_PLACEMENT_3D('',#153,#154,#155);
#107=SURFACE_SIDE_STYLE('',(#156));
#108=EDGE_LOOP('',(#157,#158,#159,#160));
#109=AXIS2_PLACEMENT_3D('',#161,#162,#163);
#110=SURFACE_SIDE_STYLE('',(#164));
#111=EDGE_LOOP('',(#165,#166,#167,#168,#169));
#112=AXIS2_PLACEMENT_3D('',#170,#171,#172);
#113=SURFACE_SIDE_STYLE('',(#173));
#115=SURFACE_STYLE_FILL_AREA(#174);
#116=ORIENTED_EDGE('',*,*,#175,.F.);
#117=ORIENTED_EDGE('',*,*,#176,.F.);
#118=ORIENTED_EDGE('',*,*,#177,.F.);
#119=ORIENTED_EDGE('',*,*,#178,.F.);
#120=ORIENTED_EDGE('',*,*,#179,.F.);
#121=CARTESIAN_POINT('',(2.99999999999999,15.0,-15.0));
#122=DIRECTION('',(-1.0,-1.12481983699639E-032,-6.12323399573677E-017));
#123=DIRECTION('',(-6.12323399573677E-017,0.0,1.0));
#124=SURFACE_STYLE_FILL_AREA(#180);
#125=ORIENTED_EDGE('',*,*,#175,.T.);
#126=ORIENTED_EDGE('',*,*,#181,.T.);
#127=ORIENTED_EDGE('',*,*,#182,.F.);
#128=ORIENTED_EDGE('',*,*,#183,.F.);
#129=CARTESIAN_POINT('',(2.99999999999999,-15.0,-15.0));
#130=DIRECTION('',(0.0,-1.0,1.83697019872103E-016));
#131=DIRECTION('',(-1.0,0.0,0.0));
#132=SURFACE_STYLE_FILL_AREA(#184);
#133=ORIENTED_EDGE('',*,*,#176,.T.);
#134=ORIENTED_EDGE('',*,*,#183,.T.);
#135=ORIENTED_EDGE('',*,*,#185,.F.);
#136=ORIENTED_EDGE('',*,*,#186,.F.);
#137=CARTESIAN_POINT('',(2.99999999999999,15.0,-15.0));
#138=DIRECTION('',(6.12323399573677E-017,-1.83697019872103E-016,-1.0));
#139=DIRECTION('',(0.0,-1.0,1.83697019872103E-016));
#140=SURFACE_STYLE_FILL_AREA(#187);
#141=ORIENTED_EDGE('',*,*,#177,.T.);
#142=ORIENTED_EDGE('',*,*,#186,.T.);
#143=ORIENTED_EDGE('',*,*,#188,.F.);
#144=ORIENTED_EDGE('',*,*,#189,.F.);
#145=CARTESIAN_POINT('',(2.99999999999999,15.0,15.0));
#146=DIRECTION('',(0.0,1.0,-1.83697019872103E-016));
#147=DIRECTION('',(1.0,0.0,0.0));
#148=SURFACE_STYLE_FILL_AREA(#190);
#149=ORIENTED_EDGE('',*,*,#178,.T.);
#150=ORIENTED_EDGE('',*,*,#189,.T.);
#151=ORIENTED_EDGE('',*,*,#191,.F.);
#152=ORIENTED_EDGE('',*,*,#192,.F.);
#153=CARTESIAN_POINT('',(2.99999999999999,10.0,15.0));
#154=DIRECTION('',(-1.12481983699639E-032,1.83697019872103E-016,1.0));
#155=DIRECTION('',(1.0,6.12323399573677E-017,0.0));
#156=SURFACE_STYLE_FILL_AREA(#193);
#157=ORIENTED_EDGE('',*,*,#179,.T.);
#158=ORIENTED_EDGE('',*,*,#192,.T.);
#159=ORIENTED_EDGE('',*,*,#194,.F.);
#160=ORIENTED_EDGE('',*,*,#181,.F.);
#161=CARTESIAN_POINT('',(2.99999999999999,10.0,-10.0));
#162=DIRECTION('',(1.0,1.12481983699639E-032,6.12323399573677E-017));
#163=DIRECTION('',(6.12323399573677E-017,-1.83697019872103E-016,-1.0));
#164=SURFACE_STYLE_FILL_AREA(#195);
#165=ORIENTED_EDGE('',*,*,#182,.T.);
#166=ORIENTED_EDGE('',*,*,#194,.T.);
#167=ORIENTED_EDGE('',*,*,#191,.T.);
#168=ORIENTED_EDGE('',*,*,#188,.T.);
#169=ORIENTED_EDGE('',*,*,#185,.T.);
#170=CARTESIAN_POINT('',(-7.105427357601E-015,15.0,-15.0));
#171=DIRECTION('',(-1.0,-1.12481983699639E-032,-6.12323399573677E-017));
#172=DIRECTION('',(-6.12323399573677E-017,0.0,1.0));
#173=SURFACE_STYLE_FILL_AREA(#196);
#174=FILL_AREA_STYLE('',(#197));
#175=EDGE_CURVE('',#198,#199,#200,.T.);
#176=EDGE_CURVE('',#201,#198,#202,.T.);
#177=EDGE_CURVE('',#203,#201,#204,.T.);
#178=EDGE_CURVE('',#205,#203,#206,.T.);
#179=EDGE_CURVE('',#199,#205,#207,.T.);
#180=FILL_AREA_STYLE('',(#208));
#181=EDGE_CURVE('',#199,#209,#210,.T.);
#182=EDGE_CURVE('',#211,#209,#212,.T.);
#183=EDGE_CURVE('',#198,#211,#213,.T.);
#184=FILL_AREA_STYLE('',(#214));
#185=EDGE_CURVE('',#215,#211,#216,.T.);
#186=EDGE_CURVE('',#201,#215,#217,.T.);
#187=FILL_AREA_STYLE('',(#218));
#188=EDGE_CURVE('',#219,#215,#220,.T.);
#189=EDGE_CURVE('',#203,#219,#221,.T.);
#190=FILL_AREA_STYLE('',(#222));
#191=EDGE_CURVE('',#223,#219,#224,.T.);
#192=EDGE_CURVE('',#205,#223,#225,.T.);
#193=FILL_AREA_STYLE('',(#226));
#194=EDGE_CURVE('',#209,#223,#227,.T.);
#195=FILL_AREA_STYLE('',(#228));
#196=FILL_AREA_STYLE('',(#229));
#197=FILL_AREA_STYLE_COLOUR('',#230);
#198=VERTEX_POINT('',#231);
#199=VERTEX_POINT('',#232);
#200=LINE('',#233,#234);
#201=VERTEX_POINT('',#235);
#202=LINE('',#236,#237);
#203=VERTEX_POINT('',#238);
#204=LINE('',#239,#240);
#205=VERTEX_POINT('',#241);
#206=LINE('',#242,#243);
#207=CIRCLE('',#244,25.0);
#208=FILL_AREA_STYLE_COLOUR('',#245);
#209=VERTEX_POINT('',#246);
#210=LINE('',#247,#248);
#211=VERTEX_POINT('',#249);
#212=LINE('',#250,#251);
#213=LINE('',#252,#253);
#214=FILL_AREA_STYLE_COLOUR('',#254);
#215=VERTEX_POINT('',#255);
#216=LINE('',#256,#257);
#217=LINE('',#258,#259);
#218=FILL_AREA_STYLE_COLOUR('',#260);
#219=VERTEX_POINT('',#261);
#220=LINE('',#262,#263);
#221=LINE('',#264,#265);
#222=FILL_AREA_STYLE_COLOUR('',#266);
#223=VERTEX_POINT('',#267);
#224=LINE('',#268,#269);
#225=LINE('',#270,#271);
#226=FILL_AREA_STYLE_COLOUR('',#272);
#227=CIRCLE('',#273,25.0);
#228=FILL_AREA_STYLE_COLOUR('',#274);
#229=FILL_AREA_STYLE_COLOUR('',#275);
#230=COLOUR_RGB('',0.61176472902298,0.61176472902298,0.650980412960052);
#231=CARTESIAN_POINT('',(2.99999999999999,-15.0,-15.0));
#232=CARTESIAN_POINT('',(2.99999999999999,-15.0,-10.0));
#233=CARTESIAN_POINT('',(2.99999999999999,-15.0,-15.0));
#234=VECTOR('',#276,5.0);
#235=CARTESIAN_POINT('',(2.99999999999999,15.0,-15.0));
#236=CARTESIAN_POINT('',(2.99999999999999,15.0,-15.0));
#237=VECTOR('',#277,30.0);
#238=CARTESIAN_POINT('',(2.99999999999999,15.0,15.0));
#239=CARTESIAN_POINT('',(2.99999999999999,15.0,15.0));
#240=VECTOR('',#278,30.0);
#241=CARTESIAN_POINT('',(2.99999999999999,10.0,15.0));
#242=CARTESIAN_POINT('',(2.99999999999999,10.0,15.0));
#243=VECTOR('',#279,5.0);
#244=AXIS2_PLACEMENT_3D('',#280,#281,#282);
#245=COLOUR_RGB('',0.61176472902298,0.61176472902298,0.650980412960052);
#246=CARTESIAN_POINT('',(-7.105427357601E-015,-15.0,-10.0));
#247=CARTESIAN_POINT('',(2.99999999999999,-15.0,-10.0));
#248=VECTOR('',#283,3.0);
#249=CARTESIAN_POINT('',(-7.105427357601E-015,-15.0,-15.0));
#250=CARTESIAN_POINT('',(-7.105427357601E-015,-15.0,-15.0));
#251=VECTOR('',#284,5.0);
#252=CARTESIAN_POINT('',(2.99999999999999,-15.0,-15.0));
#253=VECTOR('',#285,3.0);
#254=COLOUR_RGB('',0.61176472902298,0.61176472902298,0.650980412960052);
#255=CARTESIAN_POINT('',(-7.105427357601E-015,15.0,-15.0));
#256=CARTESIAN_POINT('',(-7.105427357601E-015,15.0,-15.0));
#257=VECTOR('',#286,30.0);
#258=CARTESIAN_POINT('',(2.99999999999999,15.0,-15.0));
#259=VECTOR('',#287,3.0);
#260=COLOUR_RGB('',0.61176472902298,0.61176472902298,0.650980412960052);
#261=CARTESIAN_POINT('',(-7.105427357601E-015,15.0,15.0));
#262=CARTESIAN_POINT('',(-7.105427357601E-015,15.0,15.0));
#263=VECTOR('',#288,30.0);
#264=CARTESIAN_POINT('',(2.99999999999999,15.0,15.0));
#265=VECTOR('',#289,3.0);
#266=COLOUR_RGB('',0.61176472902298,0.61176472902298,0.650980412960052);
#267=CARTESIAN_POINT('',(-7.105427357601E-015,10.0,15.0));
#268=CARTESIAN_POINT('',(-7.105427357601E-015,10.0,15.0));
#269=VECTOR('',#290,5.0);
#270=CARTESIAN_POINT('',(2.99999999999999,10.0,15.0));
#271=VECTOR('',#291,3.0);
#272=COLOUR_RGB('',0.61176472902298,0.61176472902298,0.650980412960052);
#273=AXIS2_PLACEMENT_3D('',#292,#293,#294);
#274=COLOUR_RGB('',0.61176472902298,0.61176472902298,0.650980412960052);
#275=COLOUR_RGB('',0.61176472902298,0.61176472902298,0.650980412960052);
#276=DIRECTION('',(-6.12323399573677E-017,1.83697019872103E-016,1.0));
#277=DIRECTION('',(0.0,-1.0,1.83697019872103E-016));
#278=DIRECTION('',(6.12323399573677E-017,-1.83697019872103E-016,-1.0));
#279=DIRECTION('',(0.0,1.0,-1.83697019872103E-016));
#280=CARTESIAN_POINT('',(2.99999999999999,10.0,-10.0));
#281=DIRECTION('',(-1.0,-1.12481983699639E-032,-6.12323399573677E-017));
#282=DIRECTION('',(1.75162308040602E-048,-1.0,1.83697019872103E-016));
#283=DIRECTION('',(-1.0,-1.12481983699639E-032,-6.12323399573677E-017));
#284=DIRECTION('',(-6.12323399573677E-017,1.83697019872103E-016,1.0));
#285=DIRECTION('',(-1.0,-1.12481983699639E-032,-6.12323399573677E-017));
#286=DIRECTION('',(0.0,-1.0,1.83697019872103E-016));
#287=DIRECTION('',(-1.0,-1.12481983699639E-032,-6.12323399573677E-017));
#288=DIRECTION('',(6.12323399573677E-017,-1.83697019872103E-016,-1.0));
#289=DIRECTION('',(-1.0,-1.12481983699639E-032,-6.12323399573677E-017));
#290=DIRECTION('',(0.0,1.0,-1.83697019872103E-016));
#291=DIRECTION('',(-1.0,-1.12481983699639E-032,-6.12323399573677E-017));
#292=CARTESIAN_POINT('',(-7.105427357601E-015,10.0,-10.0));
#293=DIRECTION('',(-1.0,-1.12481983699639E-032,-6.12323399573677E-017));
#294=DIRECTION('',(1.75162308040602E-048,-1.0,1.83697019872103E-016));
ENDSEC;
END-ISO-10303-21;
