ISO-10303-21;
HEADER;
FILE_DESCRIPTION(('STEP AP214'),'1');
FILE_NAME('cctmp_85A8C94C-C042-4256-B90B-AAC0EAF46A6F_2020_1_17_17_39_0_540..stp','2020-01-17T16:39:01',('Bosch Rexroth AG'),('CADClick - www.CADClick.com'),'Spatial InterOp 3D',' ','unknown authorization - (Healing Option Enabled)');
FILE_SCHEMA(('AUTOMOTIVE_DESIGN'));
ENDSEC;
DATA;
#1=MECHANICAL_DESIGN_GEOMETRIC_PRESENTATION_REPRESENTATION(' ',(#10,#11,#12,#13,#14,#15,#16,#17,#18),#6);
#2=PRODUCT_DEFINITION_CONTEXT('',#19,'design');
#3=APPLICATION_PROTOCOL_DEFINITION('INTERNATIONAL STANDARD','automotive_design',1994,#19);
#4=PRODUCT_CATEGORY_RELATIONSHIP('NONE','NONE',#20,#21);
#5=SHAPE_DEFINITION_REPRESENTATION(#22,#23);
#6= (GEOMETRIC_REPRESENTATION_CONTEXT(3)GLOBAL_UNCERTAINTY_ASSIGNED_CONTEXT((#26))GLOBAL_UNIT_ASSIGNED_CONTEXT((#28,#29,#30))REPRESENTATION_CONTEXT('NONE','WORKSPACE'));
#10=STYLED_ITEM('',(#32),#33);
#11=STYLED_ITEM('',(#34),#35);
#12=STYLED_ITEM('',(#36),#37);
#13=STYLED_ITEM('',(#38),#39);
#14=STYLED_ITEM('',(#40),#41);
#15=STYLED_ITEM('',(#42),#43);
#16=STYLED_ITEM('',(#44),#45);
#17=STYLED_ITEM('',(#46),#47);
#18=STYLED_ITEM('',(#48),#49);
#19=APPLICATION_CONTEXT(' ');
#20=PRODUCT_CATEGORY('part','NONE');
#21=PRODUCT_RELATED_PRODUCT_CATEGORY('detail',' ',(#50));
#22=PRODUCT_DEFINITION_SHAPE('NONE','NONE',#51);
#23=ADVANCED_BREP_SHAPE_REPRESENTATION('2020_01_17__17-39-00-540',(#49,#52),#6);
#26=UNCERTAINTY_MEASURE_WITH_UNIT(LENGTH_MEASURE(1.0E-006),#28,'','');
#28= (CONVERSION_BASED_UNIT('MILLIMETRE',#55)LENGTH_UNIT()NAMED_UNIT(#58));
#29= (NAMED_UNIT(#60)PLANE_ANGLE_UNIT()SI_UNIT($,.RADIAN.));
#30= (NAMED_UNIT(#60)SOLID_ANGLE_UNIT()SI_UNIT($,.STERADIAN.));
#32=PRESENTATION_STYLE_ASSIGNMENT((#66));
#33=ADVANCED_FACE('',(#67),#68,.F.);
#34=PRESENTATION_STYLE_ASSIGNMENT((#69));
#35=ADVANCED_FACE('',(#70,#71),#72,.T.);
#36=PRESENTATION_STYLE_ASSIGNMENT((#73));
#37=ADVANCED_FACE('',(#74),#75,.T.);
#38=PRESENTATION_STYLE_ASSIGNMENT((#76));
#39=ADVANCED_FACE('',(#77),#78,.T.);
#40=PRESENTATION_STYLE_ASSIGNMENT((#79));
#41=ADVANCED_FACE('',(#80),#81,.T.);
#42=PRESENTATION_STYLE_ASSIGNMENT((#82));
#43=ADVANCED_FACE('',(#83),#84,.T.);
#44=PRESENTATION_STYLE_ASSIGNMENT((#85));
#45=ADVANCED_FACE('',(#86,#87),#88,.F.);
#46=PRESENTATION_STYLE_ASSIGNMENT((#89));
#47=ADVANCED_FACE('',(#90),#91,.F.);
#48=PRESENTATION_STYLE_ASSIGNMENT((#92));
#49=MANIFOLD_SOLID_BREP('2020_01_17__17-39-00-540',#93);
#50=PRODUCT('2020_01_17__17-39-00-540','','PART--DESC',(#94));
#51=PRODUCT_DEFINITION('','NONE',#95,#2);
#52=AXIS2_PLACEMENT_3D('',#96,#97,#98);
#55=LENGTH_MEASURE_WITH_UNIT(LENGTH_MEASURE(1.0),#99);
#58=DIMENSIONAL_EXPONENTS(1.0,0.0,0.0,0.0,0.0,0.0,0.0);
#60=DIMENSIONAL_EXPONENTS(0.0,0.0,0.0,0.0,0.0,0.0,0.0);
#66=SURFACE_STYLE_USAGE(.BOTH.,#100);
#67=FACE_OUTER_BOUND('',#101,.T.);
#68=CYLINDRICAL_SURFACE('',#102,4.15);
#69=SURFACE_STYLE_USAGE(.BOTH.,#103);
#70=FACE_OUTER_BOUND('',#104,.T.);
#71=FACE_BOUND('',#105,.T.);
#72=PLANE('',#106);
#73=SURFACE_STYLE_USAGE(.BOTH.,#107);
#74=FACE_OUTER_BOUND('',#108,.T.);
#75=PLANE('',#109);
#76=SURFACE_STYLE_USAGE(.BOTH.,#110);
#77=FACE_OUTER_BOUND('',#111,.T.);
#78=PLANE('',#112);
#79=SURFACE_STYLE_USAGE(.BOTH.,#113);
#80=FACE_OUTER_BOUND('',#114,.T.);
#81=PLANE('',#115);
#82=SURFACE_STYLE_USAGE(.BOTH.,#116);
#83=FACE_OUTER_BOUND('',#117,.T.);
#84=PLANE('',#118);
#85=SURFACE_STYLE_USAGE(.BOTH.,#119);
#86=FACE_OUTER_BOUND('',#120,.T.);
#87=FACE_BOUND('',#121,.T.);
#88=PLANE('',#122);
#89=SURFACE_STYLE_USAGE(.BOTH.,#123);
#90=FACE_OUTER_BOUND('',#124,.T.);
#91=CYLINDRICAL_SURFACE('',#125,4.15);
#92=SURFACE_STYLE_USAGE(.BOTH.,#126);
#93=CLOSED_SHELL('',(#33,#35,#37,#39,#41,#43,#45,#47));
#94=PRODUCT_CONTEXT('',#19,'mechanical');
#95=PRODUCT_DEFINITION_FORMATION_WITH_SPECIFIED_SOURCE(' ','NONE',#50,.NOT_KNOWN.);
#96=CARTESIAN_POINT('',(0.0,0.0,0.0));
#97=DIRECTION('',(0.0,0.0,1.0));
#98=DIRECTION('',(1.0,0.0,0.0));
#99= (NAMED_UNIT(#58)LENGTH_UNIT()SI_UNIT(.MILLI.,.METRE.));
#100=SURFACE_SIDE_STYLE('',(#128));
#101=EDGE_LOOP('',(#129,#130,#131,#132));
#102=AXIS2_PLACEMENT_3D('',#133,#134,#135);
#103=SURFACE_SIDE_STYLE('',(#136));
#104=EDGE_LOOP('',(#137,#138,#139,#140));
#105=EDGE_LOOP('',(#141,#142));
#106=AXIS2_PLACEMENT_3D('',#143,#144,#145);
#107=SURFACE_SIDE_STYLE('',(#146));
#108=EDGE_LOOP('',(#147,#148,#149,#150));
#109=AXIS2_PLACEMENT_3D('',#151,#152,#153);
#110=SURFACE_SIDE_STYLE('',(#154));
#111=EDGE_LOOP('',(#155,#156,#157,#158));
#112=AXIS2_PLACEMENT_3D('',#159,#160,#161);
#113=SURFACE_SIDE_STYLE('',(#162));
#114=EDGE_LOOP('',(#163,#164,#165,#166));
#115=AXIS2_PLACEMENT_3D('',#167,#168,#169);
#116=SURFACE_SIDE_STYLE('',(#170));
#117=EDGE_LOOP('',(#171,#172,#173,#174));
#118=AXIS2_PLACEMENT_3D('',#175,#176,#177);
#119=SURFACE_SIDE_STYLE('',(#178));
#120=EDGE_LOOP('',(#179,#180,#181,#182));
#121=EDGE_LOOP('',(#183,#184));
#122=AXIS2_PLACEMENT_3D('',#185,#186,#187);
#123=SURFACE_SIDE_STYLE('',(#188));
#124=EDGE_LOOP('',(#189,#190,#191,#192));
#125=AXIS2_PLACEMENT_3D('',#193,#194,#195);
#126=SURFACE_SIDE_STYLE('',(#196));
#128=SURFACE_STYLE_FILL_AREA(#197);
#129=ORIENTED_EDGE('',*,*,#198,.F.);
#130=ORIENTED_EDGE('',*,*,#199,.T.);
#131=ORIENTED_EDGE('',*,*,#200,.F.);
#132=ORIENTED_EDGE('',*,*,#201,.F.);
#133=CARTESIAN_POINT('',(0.0,-5.51091059616309E-016,1.68722975549459E-031));
#134=DIRECTION('',(-1.0,-1.83697019872103E-016,5.62409918498197E-032));
#135=DIRECTION('',(-1.83697019872103E-016,1.0,-3.06161699786838E-016));
#136=SURFACE_STYLE_FILL_AREA(#202);
#137=ORIENTED_EDGE('',*,*,#203,.T.);
#138=ORIENTED_EDGE('',*,*,#204,.T.);
#139=ORIENTED_EDGE('',*,*,#205,.T.);
#140=ORIENTED_EDGE('',*,*,#206,.T.);
#141=ORIENTED_EDGE('',*,*,#199,.F.);
#142=ORIENTED_EDGE('',*,*,#207,.F.);
#143=CARTESIAN_POINT('',(3.0,0.0,0.0));
#144=DIRECTION('',(1.0,-4.13252103898525E-048,-2.24963967399279E-032));
#145=DIRECTION('',(0.0,1.0,-1.83697019872103E-016));
#146=SURFACE_STYLE_FILL_AREA(#208);
#147=ORIENTED_EDGE('',*,*,#203,.F.);
#148=ORIENTED_EDGE('',*,*,#209,.T.);
#149=ORIENTED_EDGE('',*,*,#210,.T.);
#150=ORIENTED_EDGE('',*,*,#211,.F.);
#151=CARTESIAN_POINT('',(3.0,-15.0,15.0));
#152=DIRECTION('',(1.83697019872103E-016,-1.0,3.06161699786838E-016));
#153=DIRECTION('',(-1.0,-1.83697019872103E-016,0.0));
#154=SURFACE_STYLE_FILL_AREA(#212);
#155=ORIENTED_EDGE('',*,*,#204,.F.);
#156=ORIENTED_EDGE('',*,*,#211,.T.);
#157=ORIENTED_EDGE('',*,*,#213,.T.);
#158=ORIENTED_EDGE('',*,*,#214,.F.);
#159=CARTESIAN_POINT('',(3.0,-15.0,-15.0));
#160=DIRECTION('',(0.0,-3.06161699786838E-016,-1.0));
#161=DIRECTION('',(0.0,-1.0,3.06161699786838E-016));
#162=SURFACE_STYLE_FILL_AREA(#215);
#163=ORIENTED_EDGE('',*,*,#205,.F.);
#164=ORIENTED_EDGE('',*,*,#214,.T.);
#165=ORIENTED_EDGE('',*,*,#216,.T.);
#166=ORIENTED_EDGE('',*,*,#217,.F.);
#167=CARTESIAN_POINT('',(3.0,15.0,-15.0));
#168=DIRECTION('',(5.62409918498196E-032,1.0,-3.06161699786838E-016));
#169=DIRECTION('',(1.0,0.0,1.83697019872103E-016));
#170=SURFACE_STYLE_FILL_AREA(#218);
#171=ORIENTED_EDGE('',*,*,#206,.F.);
#172=ORIENTED_EDGE('',*,*,#217,.T.);
#173=ORIENTED_EDGE('',*,*,#219,.T.);
#174=ORIENTED_EDGE('',*,*,#209,.F.);
#175=CARTESIAN_POINT('',(3.0,15.0,15.0));
#176=DIRECTION('',(0.0,3.06161699786838E-016,1.0));
#177=DIRECTION('',(1.0,-0.0,0.0));
#178=SURFACE_STYLE_FILL_AREA(#220);
#179=ORIENTED_EDGE('',*,*,#210,.F.);
#180=ORIENTED_EDGE('',*,*,#219,.F.);
#181=ORIENTED_EDGE('',*,*,#216,.F.);
#182=ORIENTED_EDGE('',*,*,#213,.F.);
#183=ORIENTED_EDGE('',*,*,#201,.T.);
#184=ORIENTED_EDGE('',*,*,#221,.T.);
#185=CARTESIAN_POINT('',(0.0,-5.51091059616309E-016,1.68722975549459E-031));
#186=DIRECTION('',(1.0,-4.13252103898525E-048,-2.24963967399279E-032));
#187=DIRECTION('',(0.0,1.0,-1.83697019872103E-016));
#188=SURFACE_STYLE_FILL_AREA(#222);
#189=ORIENTED_EDGE('',*,*,#198,.T.);
#190=ORIENTED_EDGE('',*,*,#221,.F.);
#191=ORIENTED_EDGE('',*,*,#200,.T.);
#192=ORIENTED_EDGE('',*,*,#207,.T.);
#193=CARTESIAN_POINT('',(0.0,-5.51091059616309E-016,1.68722975549459E-031));
#194=DIRECTION('',(-1.0,-1.83697019872103E-016,5.62409918498197E-032));
#195=DIRECTION('',(-1.83697019872103E-016,1.0,-3.06161699786838E-016));
#196=SURFACE_STYLE_FILL_AREA(#223);
#197=FILL_AREA_STYLE('',(#224));
#198=EDGE_CURVE('',#225,#226,#227,.T.);
#199=EDGE_CURVE('',#225,#228,#229,.T.);
#200=EDGE_CURVE('',#230,#228,#231,.T.);
#201=EDGE_CURVE('',#226,#230,#232,.T.);
#202=FILL_AREA_STYLE('',(#233));
#203=EDGE_CURVE('',#234,#235,#236,.T.);
#204=EDGE_CURVE('',#235,#237,#238,.T.);
#205=EDGE_CURVE('',#237,#239,#240,.T.);
#206=EDGE_CURVE('',#239,#234,#241,.T.);
#207=EDGE_CURVE('',#228,#225,#242,.T.);
#208=FILL_AREA_STYLE('',(#243));
#209=EDGE_CURVE('',#234,#244,#245,.T.);
#210=EDGE_CURVE('',#244,#246,#247,.T.);
#211=EDGE_CURVE('',#235,#246,#248,.T.);
#212=FILL_AREA_STYLE('',(#249));
#213=EDGE_CURVE('',#246,#250,#251,.T.);
#214=EDGE_CURVE('',#237,#250,#252,.T.);
#215=FILL_AREA_STYLE('',(#253));
#216=EDGE_CURVE('',#250,#254,#255,.T.);
#217=EDGE_CURVE('',#239,#254,#256,.T.);
#218=FILL_AREA_STYLE('',(#257));
#219=EDGE_CURVE('',#254,#244,#258,.T.);
#220=FILL_AREA_STYLE('',(#259));
#221=EDGE_CURVE('',#230,#226,#260,.T.);
#222=FILL_AREA_STYLE('',(#261));
#223=FILL_AREA_STYLE('',(#262));
#224=FILL_AREA_STYLE_COLOUR('',#263);
#225=VERTEX_POINT('',#264);
#226=VERTEX_POINT('',#265);
#227=LINE('',#266,#267);
#228=VERTEX_POINT('',#268);
#229=CIRCLE('',#269,4.15);
#230=VERTEX_POINT('',#270);
#231=LINE('',#271,#272);
#232=CIRCLE('',#273,4.15);
#233=FILL_AREA_STYLE_COLOUR('',#274);
#234=VERTEX_POINT('',#275);
#235=VERTEX_POINT('',#276);
#236=LINE('',#277,#278);
#237=VERTEX_POINT('',#279);
#238=LINE('',#280,#281);
#239=VERTEX_POINT('',#282);
#240=LINE('',#283,#284);
#241=LINE('',#285,#286);
#242=CIRCLE('',#287,4.15);
#243=FILL_AREA_STYLE_COLOUR('',#288);
#244=VERTEX_POINT('',#289);
#245=LINE('',#290,#291);
#246=VERTEX_POINT('',#292);
#247=LINE('',#293,#294);
#248=LINE('',#295,#296);
#249=FILL_AREA_STYLE_COLOUR('',#297);
#250=VERTEX_POINT('',#298);
#251=LINE('',#299,#300);
#252=LINE('',#301,#302);
#253=FILL_AREA_STYLE_COLOUR('',#303);
#254=VERTEX_POINT('',#304);
#255=LINE('',#305,#306);
#256=LINE('',#307,#308);
#257=FILL_AREA_STYLE_COLOUR('',#309);
#258=LINE('',#310,#311);
#259=FILL_AREA_STYLE_COLOUR('',#312);
#260=CIRCLE('',#313,4.15);
#261=FILL_AREA_STYLE_COLOUR('',#314);
#262=FILL_AREA_STYLE_COLOUR('',#315);
#263=COLOUR_RGB('',0.0117647061124444,0.0196078438311815,0.0392156876623631);
#264=CARTESIAN_POINT('',(3.0,4.15,-1.27057105411538E-015));
#265=CARTESIAN_POINT('',(0.0,4.15,-1.27057105411538E-015));
#266=CARTESIAN_POINT('',(-7.62342632469228E-016,4.15,-7.62342632469226E-016));
#267=VECTOR('',#316,1.0);
#268=CARTESIAN_POINT('',(3.0,-4.15,7.62342632469227E-016));
#269=AXIS2_PLACEMENT_3D('',#317,#318,#319);
#270=CARTESIAN_POINT('',(7.62342632469228E-016,-4.15,7.62342632469227E-016));
#271=CARTESIAN_POINT('',(7.62342632469228E-016,-4.15,7.62342632469227E-016));
#272=VECTOR('',#320,1.0);
#273=AXIS2_PLACEMENT_3D('',#321,#322,#323);
#274=COLOUR_RGB('',0.0117647061124444,0.0196078438311815,0.0392156876623631);
#275=CARTESIAN_POINT('',(3.0,-15.0,15.0));
#276=CARTESIAN_POINT('',(3.0,-15.0,-15.0));
#277=CARTESIAN_POINT('',(3.0,-15.0,15.0));
#278=VECTOR('',#324,30.0);
#279=CARTESIAN_POINT('',(3.0,15.0,-15.0));
#280=CARTESIAN_POINT('',(3.0,-15.0,-15.0));
#281=VECTOR('',#325,30.0);
#282=CARTESIAN_POINT('',(3.0,15.0,15.0));
#283=CARTESIAN_POINT('',(3.0,15.0,-15.0));
#284=VECTOR('',#326,30.0);
#285=CARTESIAN_POINT('',(3.0,15.0,15.0));
#286=VECTOR('',#327,30.0);
#287=AXIS2_PLACEMENT_3D('',#328,#329,#330);
#288=COLOUR_RGB('',0.0117647061124444,0.0196078438311815,0.0392156876623631);
#289=CARTESIAN_POINT('',(0.0,-15.0,15.0));
#290=CARTESIAN_POINT('',(3.0,-15.0,15.0));
#291=VECTOR('',#331,3.0);
#292=CARTESIAN_POINT('',(0.0,-15.0,-15.0));
#293=CARTESIAN_POINT('',(0.0,-15.0,15.0));
#294=VECTOR('',#332,30.0);
#295=CARTESIAN_POINT('',(3.0,-15.0,-15.0));
#296=VECTOR('',#333,3.0);
#297=COLOUR_RGB('',0.0117647061124444,0.0196078438311815,0.0392156876623631);
#298=CARTESIAN_POINT('',(0.0,15.0,-15.0));
#299=CARTESIAN_POINT('',(0.0,-15.0,-15.0));
#300=VECTOR('',#334,30.0);
#301=CARTESIAN_POINT('',(3.0,15.0,-15.0));
#302=VECTOR('',#335,3.0);
#303=COLOUR_RGB('',0.0117647061124444,0.0196078438311815,0.0392156876623631);
#304=CARTESIAN_POINT('',(0.0,15.0,15.0));
#305=CARTESIAN_POINT('',(0.0,15.0,-15.0));
#306=VECTOR('',#336,30.0);
#307=CARTESIAN_POINT('',(3.0,15.0,15.0));
#308=VECTOR('',#337,3.0);
#309=COLOUR_RGB('',0.0117647061124444,0.0196078438311815,0.0392156876623631);
#310=CARTESIAN_POINT('',(0.0,15.0,15.0));
#311=VECTOR('',#338,30.0);
#312=COLOUR_RGB('',0.0117647061124444,0.0196078438311815,0.0392156876623631);
#313=AXIS2_PLACEMENT_3D('',#339,#340,#341);
#314=COLOUR_RGB('',0.0117647061124444,0.0196078438311815,0.0392156876623631);
#315=COLOUR_RGB('',0.0117647061124444,0.0196078438311815,0.0392156876623631);
#316=DIRECTION('',(-1.0,-1.83697019872103E-016,5.62409918498197E-032));
#317=CARTESIAN_POINT('',(3.0,0.0,0.0));
#318=DIRECTION('',(1.0,1.83697019872103E-016,-5.62409918498197E-032));
#319=DIRECTION('',(-1.83697019872103E-016,1.0,-3.06161699786838E-016));
#320=DIRECTION('',(1.0,1.83697019872103E-016,-5.62409918498197E-032));
#321=CARTESIAN_POINT('',(0.0,-5.51091059616309E-016,1.68722975549459E-031));
#322=DIRECTION('',(1.0,1.83697019872103E-016,-5.62409918498197E-032));
#323=DIRECTION('',(-1.83697019872103E-016,1.0,-3.06161699786838E-016));
#324=DIRECTION('',(0.0,-3.06161699786838E-016,-1.0));
#325=DIRECTION('',(-1.83697019872103E-016,1.0,-3.06161699786838E-016));
#326=DIRECTION('',(0.0,3.06161699786838E-016,1.0));
#327=DIRECTION('',(1.83697019872103E-016,-1.0,3.06161699786838E-016));
#328=CARTESIAN_POINT('',(3.0,0.0,0.0));
#329=DIRECTION('',(1.0,1.83697019872103E-016,-5.62409918498197E-032));
#330=DIRECTION('',(-1.83697019872103E-016,1.0,-3.06161699786838E-016));
#331=DIRECTION('',(-1.0,-1.83697019872103E-016,5.62409918498197E-032));
#332=DIRECTION('',(0.0,-3.06161699786838E-016,-1.0));
#333=DIRECTION('',(-1.0,-1.83697019872103E-016,5.62409918498197E-032));
#334=DIRECTION('',(-1.83697019872103E-016,1.0,-3.06161699786838E-016));
#335=DIRECTION('',(-1.0,-1.83697019872103E-016,5.62409918498197E-032));
#336=DIRECTION('',(0.0,3.06161699786838E-016,1.0));
#337=DIRECTION('',(-1.0,-1.83697019872103E-016,5.62409918498197E-032));
#338=DIRECTION('',(1.83697019872103E-016,-1.0,3.06161699786838E-016));
#339=CARTESIAN_POINT('',(0.0,-5.51091059616309E-016,1.68722975549459E-031));
#340=DIRECTION('',(1.0,1.83697019872103E-016,-5.62409918498197E-032));
#341=DIRECTION('',(-1.83697019872103E-016,1.0,-3.06161699786838E-016));
ENDSEC;
END-ISO-10303-21;
