ISO-10303-21;
HEADER;
FILE_DESCRIPTION(('STEP AP214'),'1');
FILE_NAME('cctmp_820A686E-C527-4EE3-B1D3-90861968EFE5_2020_1_17_17_36_49_493..stp','2020-01-17T16:36:49',('Bosch Rexroth AG'),('CADClick - www.CADClick.com'),'Spatial InterOp 3D',' ','unknown authorization - (Healing Option Enabled)');
FILE_SCHEMA(('AUTOMOTIVE_DESIGN'));
ENDSEC;
DATA;
#1=MECHANICAL_DESIGN_GEOMETRIC_PRESENTATION_REPRESENTATION(' ',(#10,#11,#12,#13,#14,#15,#16),#6);
#2=PRODUCT_DEFINITION_CONTEXT('',#17,'design');
#3=APPLICATION_PROTOCOL_DEFINITION('INTERNATIONAL STANDARD','automotive_design',1994,#17);
#4=PRODUCT_CATEGORY_RELATIONSHIP('NONE','NONE',#18,#19);
#5=SHAPE_DEFINITION_REPRESENTATION(#20,#21);
#6= (GEOMETRIC_REPRESENTATION_CONTEXT(3)GLOBAL_UNCERTAINTY_ASSIGNED_CONTEXT((#24))GLOBAL_UNIT_ASSIGNED_CONTEXT((#26,#27,#28))REPRESENTATION_CONTEXT('NONE','WORKSPACE'));
#10=STYLED_ITEM('',(#30),#31);
#11=STYLED_ITEM('',(#32),#33);
#12=STYLED_ITEM('',(#34),#35);
#13=STYLED_ITEM('',(#36),#37);
#14=STYLED_ITEM('',(#38),#39);
#15=STYLED_ITEM('',(#40),#41);
#16=STYLED_ITEM('',(#42),#43);
#17=APPLICATION_CONTEXT(' ');
#18=PRODUCT_CATEGORY('part','NONE');
#19=PRODUCT_RELATED_PRODUCT_CATEGORY('detail',' ',(#44));
#20=PRODUCT_DEFINITION_SHAPE('NONE','NONE',#45);
#21=ADVANCED_BREP_SHAPE_REPRESENTATION('2020_01_17__17-36-49-493',(#43,#46),#6);
#24=UNCERTAINTY_MEASURE_WITH_UNIT(LENGTH_MEASURE(1.0E-006),#26,'','');
#26= (CONVERSION_BASED_UNIT('MILLIMETRE',#49)LENGTH_UNIT()NAMED_UNIT(#52));
#27= (NAMED_UNIT(#54)PLANE_ANGLE_UNIT()SI_UNIT($,.RADIAN.));
#28= (NAMED_UNIT(#54)SOLID_ANGLE_UNIT()SI_UNIT($,.STERADIAN.));
#30=PRESENTATION_STYLE_ASSIGNMENT((#60));
#31=ADVANCED_FACE('',(#61),#62,.F.);
#32=PRESENTATION_STYLE_ASSIGNMENT((#63));
#33=ADVANCED_FACE('',(#64),#65,.T.);
#34=PRESENTATION_STYLE_ASSIGNMENT((#66));
#35=ADVANCED_FACE('',(#67),#68,.T.);
#36=PRESENTATION_STYLE_ASSIGNMENT((#69));
#37=ADVANCED_FACE('',(#70),#71,.T.);
#38=PRESENTATION_STYLE_ASSIGNMENT((#72));
#39=ADVANCED_FACE('',(#73),#74,.F.);
#40=PRESENTATION_STYLE_ASSIGNMENT((#75));
#41=ADVANCED_FACE('',(#76),#77,.T.);
#42=PRESENTATION_STYLE_ASSIGNMENT((#78));
#43=MANIFOLD_SOLID_BREP('2020_01_17__17-36-49-493',#79);
#44=PRODUCT('2020_01_17__17-36-49-493','','PART--DESC',(#80));
#45=PRODUCT_DEFINITION('','NONE',#81,#2);
#46=AXIS2_PLACEMENT_3D('',#82,#83,#84);
#49=LENGTH_MEASURE_WITH_UNIT(LENGTH_MEASURE(1.0),#85);
#52=DIMENSIONAL_EXPONENTS(1.0,0.0,0.0,0.0,0.0,0.0,0.0);
#54=DIMENSIONAL_EXPONENTS(0.0,0.0,0.0,0.0,0.0,0.0,0.0);
#60=SURFACE_STYLE_USAGE(.BOTH.,#86);
#61=FACE_OUTER_BOUND('',#87,.T.);
#62=PLANE('',#88);
#63=SURFACE_STYLE_USAGE(.BOTH.,#89);
#64=FACE_OUTER_BOUND('',#90,.T.);
#65=PLANE('',#91);
#66=SURFACE_STYLE_USAGE(.BOTH.,#92);
#67=FACE_OUTER_BOUND('',#93,.T.);
#68=PLANE('',#94);
#69=SURFACE_STYLE_USAGE(.BOTH.,#95);
#70=FACE_OUTER_BOUND('',#96,.T.);
#71=PLANE('',#97);
#72=SURFACE_STYLE_USAGE(.BOTH.,#98);
#73=FACE_OUTER_BOUND('',#99,.T.);
#74=PLANE('',#100);
#75=SURFACE_STYLE_USAGE(.BOTH.,#101);
#76=FACE_OUTER_BOUND('',#102,.T.);
#77=PLANE('',#103);
#78=SURFACE_STYLE_USAGE(.BOTH.,#104);
#79=CLOSED_SHELL('',(#31,#33,#35,#37,#39,#41));
#80=PRODUCT_CONTEXT('',#17,'mechanical');
#81=PRODUCT_DEFINITION_FORMATION_WITH_SPECIFIED_SOURCE(' ','NONE',#44,.NOT_KNOWN.);
#82=CARTESIAN_POINT('',(0.0,0.0,0.0));
#83=DIRECTION('',(0.0,0.0,1.0));
#84=DIRECTION('',(1.0,0.0,0.0));
#85= (NAMED_UNIT(#52)LENGTH_UNIT()SI_UNIT(.MILLI.,.METRE.));
#86=SURFACE_SIDE_STYLE('',(#106));
#87=EDGE_LOOP('',(#107,#108,#109,#110));
#88=AXIS2_PLACEMENT_3D('',#111,#112,#113);
#89=SURFACE_SIDE_STYLE('',(#114));
#90=EDGE_LOOP('',(#115,#116,#117,#118));
#91=AXIS2_PLACEMENT_3D('',#119,#120,#121);
#92=SURFACE_SIDE_STYLE('',(#122));
#93=EDGE_LOOP('',(#123,#124,#125,#126));
#94=AXIS2_PLACEMENT_3D('',#127,#128,#129);
#95=SURFACE_SIDE_STYLE('',(#130));
#96=EDGE_LOOP('',(#131,#132,#133,#134));
#97=AXIS2_PLACEMENT_3D('',#135,#136,#137);
#98=SURFACE_SIDE_STYLE('',(#138));
#99=EDGE_LOOP('',(#139,#140,#141,#142));
#100=AXIS2_PLACEMENT_3D('',#143,#144,#145);
#101=SURFACE_SIDE_STYLE('',(#146));
#102=EDGE_LOOP('',(#147,#148,#149,#150));
#103=AXIS2_PLACEMENT_3D('',#151,#152,#153);
#104=SURFACE_SIDE_STYLE('',(#154));
#106=SURFACE_STYLE_FILL_AREA(#155);
#107=ORIENTED_EDGE('',*,*,#156,.T.);
#108=ORIENTED_EDGE('',*,*,#157,.F.);
#109=ORIENTED_EDGE('',*,*,#158,.T.);
#110=ORIENTED_EDGE('',*,*,#159,.T.);
#111=CARTESIAN_POINT('',(-2.6175277880183E-015,1.14605322820977E-013,7.49999999999989));
#112=DIRECTION('',(1.0,-1.49975978266186E-032,-6.12323399573676E-017));
#113=DIRECTION('',(0.0,1.0,-2.44929359829471E-016));
#114=SURFACE_STYLE_FILL_AREA(#160);
#115=ORIENTED_EDGE('',*,*,#161,.F.);
#116=ORIENTED_EDGE('',*,*,#162,.F.);
#117=ORIENTED_EDGE('',*,*,#156,.F.);
#118=ORIENTED_EDGE('',*,*,#163,.T.);
#119=CARTESIAN_POINT('',(-1.73132893777865E-014,60.0000000000001,7.49999999999988));
#120=DIRECTION('',(3.74939945665465E-033,6.12323399573677E-017,1.0));
#121=DIRECTION('',(1.0,-6.12323399573677E-017,0.0));
#122=SURFACE_STYLE_FILL_AREA(#164);
#123=ORIENTED_EDGE('',*,*,#165,.T.);
#124=ORIENTED_EDGE('',*,*,#166,.T.);
#125=ORIENTED_EDGE('',*,*,#161,.T.);
#126=ORIENTED_EDGE('',*,*,#167,.F.);
#127=CARTESIAN_POINT('',(4.0,1.15585040260294E-013,7.49999999999989));
#128=DIRECTION('',(1.0,-1.49975978266186E-032,-6.12323399573676E-017));
#129=DIRECTION('',(0.0,1.0,-2.44929359829471E-016));
#130=SURFACE_STYLE_FILL_AREA(#168);
#131=ORIENTED_EDGE('',*,*,#158,.F.);
#132=ORIENTED_EDGE('',*,*,#169,.T.);
#133=ORIENTED_EDGE('',*,*,#165,.F.);
#134=ORIENTED_EDGE('',*,*,#170,.F.);
#135=CARTESIAN_POINT('',(-3.53601288737881E-015,1.13686837721616E-013,-7.50000000000012));
#136=DIRECTION('',(-6.12323399573677E-017,-6.12323399573677E-017,-1.0));
#137=DIRECTION('',(0.0,-1.0,6.12323399573677E-017));
#138=SURFACE_STYLE_FILL_AREA(#171);
#139=ORIENTED_EDGE('',*,*,#159,.F.);
#140=ORIENTED_EDGE('',*,*,#170,.T.);
#141=ORIENTED_EDGE('',*,*,#167,.T.);
#142=ORIENTED_EDGE('',*,*,#163,.F.);
#143=CARTESIAN_POINT('',(1.11597487023894E-014,-59.9999999999999,-7.50000000000011));
#144=DIRECTION('',(1.49975978266186E-032,1.0,-6.12323399573675E-017));
#145=DIRECTION('',(1.0,0.0,2.44929359829471E-016));
#146=SURFACE_STYLE_FILL_AREA(#172);
#147=ORIENTED_EDGE('',*,*,#157,.T.);
#148=ORIENTED_EDGE('',*,*,#162,.T.);
#149=ORIENTED_EDGE('',*,*,#166,.F.);
#150=ORIENTED_EDGE('',*,*,#169,.F.);
#151=CARTESIAN_POINT('',(-1.82317744771471E-014,60.0000000000001,-7.50000000000012));
#152=DIRECTION('',(1.49975978266186E-032,1.0,-6.12323399573675E-017));
#153=DIRECTION('',(1.0,0.0,2.44929359829471E-016));
#154=SURFACE_STYLE_FILL_AREA(#173);
#155=FILL_AREA_STYLE('',(#174));
#156=EDGE_CURVE('',#175,#176,#177,.T.);
#157=EDGE_CURVE('',#178,#176,#179,.T.);
#158=EDGE_CURVE('',#178,#180,#181,.T.);
#159=EDGE_CURVE('',#180,#175,#182,.T.);
#160=FILL_AREA_STYLE('',(#183));
#161=EDGE_CURVE('',#184,#185,#186,.T.);
#162=EDGE_CURVE('',#176,#184,#187,.T.);
#163=EDGE_CURVE('',#175,#185,#188,.T.);
#164=FILL_AREA_STYLE('',(#189));
#165=EDGE_CURVE('',#190,#191,#192,.T.);
#166=EDGE_CURVE('',#191,#184,#193,.T.);
#167=EDGE_CURVE('',#190,#185,#194,.T.);
#168=FILL_AREA_STYLE('',(#195));
#169=EDGE_CURVE('',#178,#191,#196,.T.);
#170=EDGE_CURVE('',#180,#190,#197,.T.);
#171=FILL_AREA_STYLE('',(#198));
#172=FILL_AREA_STYLE('',(#199));
#173=FILL_AREA_STYLE('',(#200));
#174=FILL_AREA_STYLE_COLOUR('',#201);
#175=VERTEX_POINT('',#202);
#176=VERTEX_POINT('',#203);
#177=LINE('',#204,#205);
#178=VERTEX_POINT('',#206);
#179=LINE('',#207,#208);
#180=VERTEX_POINT('',#209);
#181=LINE('',#210,#211);
#182=LINE('',#212,#213);
#183=FILL_AREA_STYLE_COLOUR('',#214);
#184=VERTEX_POINT('',#215);
#185=VERTEX_POINT('',#216);
#186=LINE('',#217,#218);
#187=LINE('',#219,#220);
#188=LINE('',#221,#222);
#189=FILL_AREA_STYLE_COLOUR('',#223);
#190=VERTEX_POINT('',#224);
#191=VERTEX_POINT('',#225);
#192=LINE('',#226,#227);
#193=LINE('',#228,#229);
#194=LINE('',#230,#231);
#195=FILL_AREA_STYLE_COLOUR('',#232);
#196=LINE('',#233,#234);
#197=LINE('',#235,#236);
#198=FILL_AREA_STYLE_COLOUR('',#237);
#199=FILL_AREA_STYLE_COLOUR('',#238);
#200=FILL_AREA_STYLE_COLOUR('',#239);
#201=COLOUR_RGB('',0.61176472902298,0.61176472902298,0.650980412960052);
#202=CARTESIAN_POINT('',(1.20782338017499E-014,-59.9999999999999,7.49999999999989));
#203=CARTESIAN_POINT('',(-1.73132893777865E-014,60.0000000000001,7.49999999999988));
#204=CARTESIAN_POINT('',(1.20782338017499E-014,-59.9999999999999,7.49999999999989));
#205=VECTOR('',#240,120.0);
#206=CARTESIAN_POINT('',(-1.82317744771471E-014,60.0000000000001,-7.50000000000012));
#207=CARTESIAN_POINT('',(-1.82317744771471E-014,60.0000000000001,-7.50000000000012));
#208=VECTOR('',#241,15.0);
#209=CARTESIAN_POINT('',(1.11597487023894E-014,-59.9999999999999,-7.50000000000011));
#210=CARTESIAN_POINT('',(-1.82317744771471E-014,60.0000000000001,-7.50000000000012));
#211=VECTOR('',#242,120.0);
#212=CARTESIAN_POINT('',(1.11597487023894E-014,-59.9999999999999,-7.50000000000011));
#213=VECTOR('',#243,15.0);
#214=COLOUR_RGB('',0.61176472902298,0.61176472902298,0.650980412960052);
#215=CARTESIAN_POINT('',(3.99999999999998,60.0000000000001,7.49999999999988));
#216=CARTESIAN_POINT('',(4.00000000000001,-59.9999999999999,7.49999999999989));
#217=CARTESIAN_POINT('',(3.99999999999998,60.0000000000001,7.49999999999988));
#218=VECTOR('',#244,120.0);
#219=CARTESIAN_POINT('',(-1.73132893777865E-014,60.0000000000001,7.49999999999988));
#220=VECTOR('',#245,4.0);
#221=CARTESIAN_POINT('',(1.20782338017499E-014,-59.9999999999999,7.49999999999989));
#222=VECTOR('',#246,4.0);
#223=COLOUR_RGB('',0.61176472902298,0.61176472902298,0.650980412960052);
#224=CARTESIAN_POINT('',(4.00000000000001,-59.9999999999999,-7.50000000000011));
#225=CARTESIAN_POINT('',(3.99999999999998,60.0000000000001,-7.50000000000012));
#226=CARTESIAN_POINT('',(4.00000000000001,-59.9999999999999,-7.50000000000011));
#227=VECTOR('',#247,120.0);
#228=CARTESIAN_POINT('',(3.99999999999998,60.0000000000001,-7.50000000000012));
#229=VECTOR('',#248,15.0);
#230=CARTESIAN_POINT('',(4.00000000000001,-59.9999999999999,-7.50000000000011));
#231=VECTOR('',#249,15.0);
#232=COLOUR_RGB('',0.61176472902298,0.61176472902298,0.650980412960052);
#233=CARTESIAN_POINT('',(-1.82317744771471E-014,60.0000000000001,-7.50000000000012));
#234=VECTOR('',#250,4.0);
#235=CARTESIAN_POINT('',(1.11597487023894E-014,-59.9999999999999,-7.50000000000011));
#236=VECTOR('',#251,4.0);
#237=COLOUR_RGB('',0.61176472902298,0.61176472902298,0.650980412960052);
#238=COLOUR_RGB('',0.61176472902298,0.61176472902298,0.650980412960052);
#239=COLOUR_RGB('',0.61176472902298,0.61176472902298,0.650980412960052);
#240=DIRECTION('',(-2.44929359829471E-016,1.0,-6.12323399573677E-017));
#241=DIRECTION('',(6.12323399573677E-017,6.12323399573677E-017,1.0));
#242=DIRECTION('',(2.44929359829471E-016,-1.0,6.12323399573677E-017));
#243=DIRECTION('',(6.12323399573677E-017,6.12323399573677E-017,1.0));
#244=DIRECTION('',(2.44929359829471E-016,-1.0,6.12323399573677E-017));
#245=DIRECTION('',(1.0,2.44929359829471E-016,-6.12323399573677E-017));
#246=DIRECTION('',(1.0,2.44929359829471E-016,-6.12323399573677E-017));
#247=DIRECTION('',(-2.44929359829471E-016,1.0,-6.12323399573677E-017));
#248=DIRECTION('',(6.12323399573677E-017,6.12323399573677E-017,1.0));
#249=DIRECTION('',(6.12323399573677E-017,6.12323399573677E-017,1.0));
#250=DIRECTION('',(1.0,2.44929359829471E-016,-6.12323399573677E-017));
#251=DIRECTION('',(1.0,2.44929359829471E-016,-6.12323399573677E-017));
ENDSEC;
END-ISO-10303-21;
