ISO-10303-21;
HEADER;
FILE_DESCRIPTION(('STEP AP214'),'1');
FILE_NAME('cctmp_989CAA30-4A02-4EC4-B93A-BD54BF17B8D3_2020_1_17_7_52_49_162..stp','2020-01-17T06:52:49',('Bosch Rexroth AG'),('CADClick - www.CADClick.com'),'Spatial InterOp 3D',' ','unknown authorization - (Healing Option Enabled)');
FILE_SCHEMA(('AUTOMOTIVE_DESIGN'));
ENDSEC;
DATA;
#1=MECHANICAL_DESIGN_GEOMETRIC_PRESENTATION_REPRESENTATION(' ',(#10,#11,#12,#13,#14,#15,#16,#17,#18,#19,#20,#21,#22,#23,#24,#25),#6);
#2=PRODUCT_DEFINITION_CONTEXT('',#26,'design');
#3=APPLICATION_PROTOCOL_DEFINITION('INTERNATIONAL STANDARD','automotive_design',1994,#26);
#4=PRODUCT_CATEGORY_RELATIONSHIP('NONE','NONE',#27,#28);
#5=SHAPE_DEFINITION_REPRESENTATION(#29,#30);
#6= (GEOMETRIC_REPRESENTATION_CONTEXT(3)GLOBAL_UNCERTAINTY_ASSIGNED_CONTEXT((#33))GLOBAL_UNIT_ASSIGNED_CONTEXT((#35,#36,#37))REPRESENTATION_CONTEXT('NONE','WORKSPACE'));
#10=STYLED_ITEM('',(#39),#40);
#11=STYLED_ITEM('',(#41),#42);
#12=STYLED_ITEM('',(#43),#44);
#13=STYLED_ITEM('',(#45),#46);
#14=STYLED_ITEM('',(#47),#48);
#15=STYLED_ITEM('',(#49),#50);
#16=STYLED_ITEM('',(#51),#52);
#17=STYLED_ITEM('',(#53),#54);
#18=STYLED_ITEM('',(#55),#56);
#19=STYLED_ITEM('',(#57),#58);
#20=STYLED_ITEM('',(#59),#60);
#21=STYLED_ITEM('',(#61),#62);
#22=STYLED_ITEM('',(#63),#64);
#23=STYLED_ITEM('',(#65),#66);
#24=STYLED_ITEM('',(#67),#68);
#25=STYLED_ITEM('',(#69),#70);
#26=APPLICATION_CONTEXT(' ');
#27=PRODUCT_CATEGORY('part','NONE');
#28=PRODUCT_RELATED_PRODUCT_CATEGORY('detail',' ',(#71));
#29=PRODUCT_DEFINITION_SHAPE('NONE','NONE',#72);
#30=ADVANCED_BREP_SHAPE_REPRESENTATION('2020_01_17__07-52-49-162',(#73,#74),#6);
#33=UNCERTAINTY_MEASURE_WITH_UNIT(LENGTH_MEASURE(1.0E-006),#35,'','');
#35= (CONVERSION_BASED_UNIT('MILLIMETRE',#77)LENGTH_UNIT()NAMED_UNIT(#80));
#36= (NAMED_UNIT(#82)PLANE_ANGLE_UNIT()SI_UNIT($,.RADIAN.));
#37= (NAMED_UNIT(#82)SOLID_ANGLE_UNIT()SI_UNIT($,.STERADIAN.));
#39=PRESENTATION_STYLE_ASSIGNMENT((#88));
#40=ADVANCED_FACE('',(#89),#90,.F.);
#41=PRESENTATION_STYLE_ASSIGNMENT((#91));
#42=ADVANCED_FACE('',(#92),#93,.T.);
#43=PRESENTATION_STYLE_ASSIGNMENT((#94));
#44=ADVANCED_FACE('',(#95),#96,.T.);
#45=PRESENTATION_STYLE_ASSIGNMENT((#97));
#46=ADVANCED_FACE('',(#98),#99,.T.);
#47=PRESENTATION_STYLE_ASSIGNMENT((#100));
#48=ADVANCED_FACE('',(#101),#102,.T.);
#49=PRESENTATION_STYLE_ASSIGNMENT((#103));
#50=ADVANCED_FACE('',(#104),#105,.T.);
#51=PRESENTATION_STYLE_ASSIGNMENT((#106));
#52=ADVANCED_FACE('',(#107),#108,.T.);
#53=PRESENTATION_STYLE_ASSIGNMENT((#109));
#54=ADVANCED_FACE('',(#110,#111),#112,.T.);
#55=PRESENTATION_STYLE_ASSIGNMENT((#113));
#56=ADVANCED_FACE('',(#114),#115,.T.);
#57=PRESENTATION_STYLE_ASSIGNMENT((#116));
#58=ADVANCED_FACE('',(#117),#118,.T.);
#59=PRESENTATION_STYLE_ASSIGNMENT((#119));
#60=ADVANCED_FACE('',(#120),#121,.T.);
#61=PRESENTATION_STYLE_ASSIGNMENT((#122));
#62=ADVANCED_FACE('',(#123),#124,.T.);
#63=PRESENTATION_STYLE_ASSIGNMENT((#125));
#64=ADVANCED_FACE('',(#126),#127,.T.);
#65=PRESENTATION_STYLE_ASSIGNMENT((#128));
#66=ADVANCED_FACE('',(#129),#130,.T.);
#67=PRESENTATION_STYLE_ASSIGNMENT((#131));
#68=ADVANCED_FACE('',(#132),#133,.F.);
#69=PRESENTATION_STYLE_ASSIGNMENT((#134));
#70=ADVANCED_FACE('',(#135),#136,.T.);
#71=PRODUCT('2020_01_17__07-52-49-162','2020_01_17__07-52-49-162','PART-2020_01_17__07-52-49-162-DESC',(#137));
#72=PRODUCT_DEFINITION('','NONE',#138,#2);
#73=MANIFOLD_SOLID_BREP('2020_01_17__07-52-49-162',#139);
#74=AXIS2_PLACEMENT_3D('',#140,#141,#142);
#77=LENGTH_MEASURE_WITH_UNIT(LENGTH_MEASURE(1.0),#143);
#80=DIMENSIONAL_EXPONENTS(1.0,0.0,0.0,0.0,0.0,0.0,0.0);
#82=DIMENSIONAL_EXPONENTS(0.0,0.0,0.0,0.0,0.0,0.0,0.0);
#88=SURFACE_STYLE_USAGE(.BOTH.,#144);
#89=FACE_OUTER_BOUND('',#145,.T.);
#90=CYLINDRICAL_SURFACE('',#146,10.5);
#91=SURFACE_STYLE_USAGE(.BOTH.,#147);
#92=FACE_OUTER_BOUND('',#148,.T.);
#93=CONICAL_SURFACE('',#149,2.049956795122,1.54737634213157);
#94=SURFACE_STYLE_USAGE(.BOTH.,#150);
#95=FACE_OUTER_BOUND('',#151,.T.);
#96=CONICAL_SURFACE('',#152,5.967710714386,1.50051080973285);
#97=SURFACE_STYLE_USAGE(.BOTH.,#153);
#98=FACE_OUTER_BOUND('',#154,.T.);
#99=CONICAL_SURFACE('',#155,10.31168541958,1.44913514247768);
#100=SURFACE_STYLE_USAGE(.BOTH.,#156);
#101=FACE_OUTER_BOUND('',#157,.T.);
#102=CYLINDRICAL_SURFACE('',#158,12.66789110999);
#103=SURFACE_STYLE_USAGE(.BOTH.,#159);
#104=FACE_OUTER_BOUND('',#160,.T.);
#105=CONICAL_SURFACE('',#161,12.08394555499,0.785398163397448);
#106=SURFACE_STYLE_USAGE(.BOTH.,#162);
#107=FACE_OUTER_BOUND('',#163,.T.);
#108=CYLINDRICAL_SURFACE('',#164,11.5);
#109=SURFACE_STYLE_USAGE(.BOTH.,#165);
#110=FACE_OUTER_BOUND('',#166,.T.);
#111=FACE_BOUND('',#167,.T.);
#112=PLANE('',#168);
#113=SURFACE_STYLE_USAGE(.BOTH.,#169);
#114=FACE_OUTER_BOUND('',#170,.T.);
#115=CYLINDRICAL_SURFACE('',#171,11.5);
#116=SURFACE_STYLE_USAGE(.BOTH.,#172);
#117=FACE_OUTER_BOUND('',#173,.T.);
#118=CONICAL_SURFACE('',#174,12.08394555499,0.785398163397448);
#119=SURFACE_STYLE_USAGE(.BOTH.,#175);
#120=FACE_OUTER_BOUND('',#176,.T.);
#121=CYLINDRICAL_SURFACE('',#177,12.66789110999);
#122=SURFACE_STYLE_USAGE(.BOTH.,#178);
#123=FACE_OUTER_BOUND('',#179,.T.);
#124=CONICAL_SURFACE('',#180,10.31168541958,1.44913514247768);
#125=SURFACE_STYLE_USAGE(.BOTH.,#181);
#126=FACE_OUTER_BOUND('',#182,.T.);
#127=CONICAL_SURFACE('',#183,5.967710714386,1.50051080973285);
#128=SURFACE_STYLE_USAGE(.BOTH.,#184);
#129=FACE_OUTER_BOUND('',#185,.T.);
#130=CONICAL_SURFACE('',#186,2.049956795122,1.54737634213157);
#131=SURFACE_STYLE_USAGE(.BOTH.,#187);
#132=FACE_OUTER_BOUND('',#188,.T.);
#133=CYLINDRICAL_SURFACE('',#189,10.5);
#134=SURFACE_STYLE_USAGE(.BOTH.,#190);
#135=FACE_OUTER_BOUND('',#191,.T.);
#136=PLANE('',#192);
#137=PRODUCT_CONTEXT('',#26,'mechanical');
#138=PRODUCT_DEFINITION_FORMATION_WITH_SPECIFIED_SOURCE(' ','NONE',#71,.NOT_KNOWN.);
#139=CLOSED_SHELL('',(#40,#42,#44,#46,#48,#50,#52,#54,#56,#58,#60,#62,#64,#66,#68,#70));
#140=CARTESIAN_POINT('',(0.0,0.0,0.0));
#141=DIRECTION('',(0.0,0.0,1.0));
#142=DIRECTION('',(1.0,0.0,0.0));
#143= (NAMED_UNIT(#80)LENGTH_UNIT()SI_UNIT(.MILLI.,.METRE.));
#144=SURFACE_SIDE_STYLE('',(#194));
#145=EDGE_LOOP('',(#195,#196,#197,#198));
#146=AXIS2_PLACEMENT_3D('',#199,#200,#201);
#147=SURFACE_SIDE_STYLE('',(#202));
#148=EDGE_LOOP('',(#203,#204,#205));
#149=AXIS2_PLACEMENT_3D('',#206,#207,#208);
#150=SURFACE_SIDE_STYLE('',(#209));
#151=EDGE_LOOP('',(#210,#211,#212,#213));
#152=AXIS2_PLACEMENT_3D('',#214,#215,#216);
#153=SURFACE_SIDE_STYLE('',(#217));
#154=EDGE_LOOP('',(#218,#219,#220,#221));
#155=AXIS2_PLACEMENT_3D('',#222,#223,#224);
#156=SURFACE_SIDE_STYLE('',(#225));
#157=EDGE_LOOP('',(#226,#227,#228,#229));
#158=AXIS2_PLACEMENT_3D('',#230,#231,#232);
#159=SURFACE_SIDE_STYLE('',(#233));
#160=EDGE_LOOP('',(#234,#235,#236,#237));
#161=AXIS2_PLACEMENT_3D('',#238,#239,#240);
#162=SURFACE_SIDE_STYLE('',(#241));
#163=EDGE_LOOP('',(#242,#243,#244,#245));
#164=AXIS2_PLACEMENT_3D('',#246,#247,#248);
#165=SURFACE_SIDE_STYLE('',(#249));
#166=EDGE_LOOP('',(#250,#251));
#167=EDGE_LOOP('',(#252,#253));
#168=AXIS2_PLACEMENT_3D('',#254,#255,#256);
#169=SURFACE_SIDE_STYLE('',(#257));
#170=EDGE_LOOP('',(#258,#259,#260,#261));
#171=AXIS2_PLACEMENT_3D('',#262,#263,#264);
#172=SURFACE_SIDE_STYLE('',(#265));
#173=EDGE_LOOP('',(#266,#267,#268,#269));
#174=AXIS2_PLACEMENT_3D('',#270,#271,#272);
#175=SURFACE_SIDE_STYLE('',(#273));
#176=EDGE_LOOP('',(#274,#275,#276,#277));
#177=AXIS2_PLACEMENT_3D('',#278,#279,#280);
#178=SURFACE_SIDE_STYLE('',(#281));
#179=EDGE_LOOP('',(#282,#283,#284,#285));
#180=AXIS2_PLACEMENT_3D('',#286,#287,#288);
#181=SURFACE_SIDE_STYLE('',(#289));
#182=EDGE_LOOP('',(#290,#291,#292,#293));
#183=AXIS2_PLACEMENT_3D('',#294,#295,#296);
#184=SURFACE_SIDE_STYLE('',(#297));
#185=EDGE_LOOP('',(#298,#299,#300));
#186=AXIS2_PLACEMENT_3D('',#301,#302,#303);
#187=SURFACE_SIDE_STYLE('',(#304));
#188=EDGE_LOOP('',(#305,#306,#307,#308));
#189=AXIS2_PLACEMENT_3D('',#309,#310,#311);
#190=SURFACE_SIDE_STYLE('',(#312));
#191=EDGE_LOOP('',(#313,#314));
#192=AXIS2_PLACEMENT_3D('',#315,#316,#317);
#194=SURFACE_STYLE_FILL_AREA(#318);
#195=ORIENTED_EDGE('',*,*,#319,.F.);
#196=ORIENTED_EDGE('',*,*,#320,.F.);
#197=ORIENTED_EDGE('',*,*,#321,.F.);
#198=ORIENTED_EDGE('',*,*,#322,.T.);
#199=CARTESIAN_POINT('',(-10.5,1.4210854715202E-014,0.0));
#200=DIRECTION('',(1.0,0.0,0.0));
#201=DIRECTION('',(0.0,-1.0,0.0));
#202=SURFACE_STYLE_FILL_AREA(#323);
#203=ORIENTED_EDGE('',*,*,#324,.T.);
#204=ORIENTED_EDGE('',*,*,#325,.T.);
#205=ORIENTED_EDGE('',*,*,#326,.F.);
#206=CARTESIAN_POINT('',(-9.95198126362001,1.4210854715202E-014,0.0));
#207=DIRECTION('',(1.0,0.0,0.0));
#208=DIRECTION('',(0.0,-1.0,0.0));
#209=SURFACE_STYLE_FILL_AREA(#327);
#210=ORIENTED_EDGE('',*,*,#328,.F.);
#211=ORIENTED_EDGE('',*,*,#329,.T.);
#212=ORIENTED_EDGE('',*,*,#330,.F.);
#213=ORIENTED_EDGE('',*,*,#331,.F.);
#214=CARTESIAN_POINT('',(-9.766830891811,1.4210854715202E-014,0.0));
#215=DIRECTION('',(1.0,0.0,0.0));
#216=DIRECTION('',(0.0,-1.0,0.0));
#217=SURFACE_STYLE_FILL_AREA(#332);
#218=ORIENTED_EDGE('',*,*,#333,.F.);
#219=ORIENTED_EDGE('',*,*,#331,.T.);
#220=ORIENTED_EDGE('',*,*,#334,.F.);
#221=ORIENTED_EDGE('',*,*,#335,.F.);
#222=CARTESIAN_POINT('',(-9.338807482617,1.4210854715202E-014,0.0));
#223=DIRECTION('',(1.0,0.0,0.0));
#224=DIRECTION('',(0.0,-1.0,0.0));
#225=SURFACE_STYLE_FILL_AREA(#336);
#226=ORIENTED_EDGE('',*,*,#337,.F.);
#227=ORIENTED_EDGE('',*,*,#335,.T.);
#228=ORIENTED_EDGE('',*,*,#338,.F.);
#229=ORIENTED_EDGE('',*,*,#339,.F.);
#230=CARTESIAN_POINT('',(-10.5,1.4210854715202E-014,0.0));
#231=DIRECTION('',(1.0,0.0,0.0));
#232=DIRECTION('',(0.0,-1.0,0.0));
#233=SURFACE_STYLE_FILL_AREA(#340);
#234=ORIENTED_EDGE('',*,*,#341,.F.);
#235=ORIENTED_EDGE('',*,*,#342,.F.);
#236=ORIENTED_EDGE('',*,*,#343,.F.);
#237=ORIENTED_EDGE('',*,*,#339,.T.);
#238=CARTESIAN_POINT('',(-8.08394555499399,1.4210854715202E-014,0.0));
#239=DIRECTION('',(-1.0,0.0,-0.0));
#240=DIRECTION('',(0.0,1.0,0.0));
#241=SURFACE_STYLE_FILL_AREA(#344);
#242=ORIENTED_EDGE('',*,*,#345,.F.);
#243=ORIENTED_EDGE('',*,*,#342,.T.);
#244=ORIENTED_EDGE('',*,*,#346,.F.);
#245=ORIENTED_EDGE('',*,*,#347,.F.);
#246=CARTESIAN_POINT('',(-10.5,1.4210854715202E-014,0.0));
#247=DIRECTION('',(1.0,0.0,0.0));
#248=DIRECTION('',(0.0,-1.0,0.0));
#249=SURFACE_STYLE_FILL_AREA(#348);
#250=ORIENTED_EDGE('',*,*,#347,.T.);
#251=ORIENTED_EDGE('',*,*,#349,.T.);
#252=ORIENTED_EDGE('',*,*,#350,.T.);
#253=ORIENTED_EDGE('',*,*,#320,.T.);
#254=CARTESIAN_POINT('',(0.0,1.4210854715202E-014,0.0));
#255=DIRECTION('',(1.0,0.0,0.0));
#256=DIRECTION('',(0.0,-1.0,0.0));
#257=SURFACE_STYLE_FILL_AREA(#351);
#258=ORIENTED_EDGE('',*,*,#345,.T.);
#259=ORIENTED_EDGE('',*,*,#349,.F.);
#260=ORIENTED_EDGE('',*,*,#346,.T.);
#261=ORIENTED_EDGE('',*,*,#352,.T.);
#262=CARTESIAN_POINT('',(-10.5,1.4210854715202E-014,0.0));
#263=DIRECTION('',(1.0,0.0,0.0));
#264=DIRECTION('',(0.0,-1.0,0.0));
#265=SURFACE_STYLE_FILL_AREA(#353);
#266=ORIENTED_EDGE('',*,*,#341,.T.);
#267=ORIENTED_EDGE('',*,*,#354,.T.);
#268=ORIENTED_EDGE('',*,*,#343,.T.);
#269=ORIENTED_EDGE('',*,*,#352,.F.);
#270=CARTESIAN_POINT('',(-8.08394555499399,1.4210854715202E-014,0.0));
#271=DIRECTION('',(-1.0,0.0,-0.0));
#272=DIRECTION('',(0.0,1.0,0.0));
#273=SURFACE_STYLE_FILL_AREA(#355);
#274=ORIENTED_EDGE('',*,*,#337,.T.);
#275=ORIENTED_EDGE('',*,*,#354,.F.);
#276=ORIENTED_EDGE('',*,*,#338,.T.);
#277=ORIENTED_EDGE('',*,*,#356,.T.);
#278=CARTESIAN_POINT('',(-10.5,1.4210854715202E-014,0.0));
#279=DIRECTION('',(1.0,0.0,0.0));
#280=DIRECTION('',(0.0,-1.0,0.0));
#281=SURFACE_STYLE_FILL_AREA(#357);
#282=ORIENTED_EDGE('',*,*,#333,.T.);
#283=ORIENTED_EDGE('',*,*,#356,.F.);
#284=ORIENTED_EDGE('',*,*,#334,.T.);
#285=ORIENTED_EDGE('',*,*,#358,.T.);
#286=CARTESIAN_POINT('',(-9.338807482617,1.4210854715202E-014,0.0));
#287=DIRECTION('',(1.0,0.0,0.0));
#288=DIRECTION('',(0.0,-1.0,0.0));
#289=SURFACE_STYLE_FILL_AREA(#359);
#290=ORIENTED_EDGE('',*,*,#328,.T.);
#291=ORIENTED_EDGE('',*,*,#358,.F.);
#292=ORIENTED_EDGE('',*,*,#330,.T.);
#293=ORIENTED_EDGE('',*,*,#326,.T.);
#294=CARTESIAN_POINT('',(-9.766830891811,1.4210854715202E-014,0.0));
#295=DIRECTION('',(1.0,0.0,0.0));
#296=DIRECTION('',(0.0,-1.0,0.0));
#297=SURFACE_STYLE_FILL_AREA(#360);
#298=ORIENTED_EDGE('',*,*,#324,.F.);
#299=ORIENTED_EDGE('',*,*,#329,.F.);
#300=ORIENTED_EDGE('',*,*,#325,.F.);
#301=CARTESIAN_POINT('',(-9.95198126362001,1.4210854715202E-014,0.0));
#302=DIRECTION('',(1.0,0.0,0.0));
#303=DIRECTION('',(0.0,-1.0,0.0));
#304=SURFACE_STYLE_FILL_AREA(#361);
#305=ORIENTED_EDGE('',*,*,#319,.T.);
#306=ORIENTED_EDGE('',*,*,#362,.T.);
#307=ORIENTED_EDGE('',*,*,#321,.T.);
#308=ORIENTED_EDGE('',*,*,#350,.F.);
#309=CARTESIAN_POINT('',(-10.5,1.4210854715202E-014,0.0));
#310=DIRECTION('',(1.0,0.0,0.0));
#311=DIRECTION('',(0.0,-1.0,0.0));
#312=SURFACE_STYLE_FILL_AREA(#363);
#313=ORIENTED_EDGE('',*,*,#362,.F.);
#314=ORIENTED_EDGE('',*,*,#322,.F.);
#315=CARTESIAN_POINT('',(-8.341166298535,1.4210854715202E-014,0.0));
#316=DIRECTION('',(1.0,0.0,0.0));
#317=DIRECTION('',(0.0,-1.0,0.0));
#318=FILL_AREA_STYLE('',(#364));
#319=EDGE_CURVE('',#365,#366,#367,.T.);
#320=EDGE_CURVE('',#368,#365,#369,.T.);
#321=EDGE_CURVE('',#370,#368,#371,.T.);
#322=EDGE_CURVE('',#370,#366,#372,.T.);
#323=FILL_AREA_STYLE('',(#373));
#324=EDGE_CURVE('',#374,#375,#376,.T.);
#325=EDGE_CURVE('',#375,#377,#378,.T.);
#326=EDGE_CURVE('',#374,#377,#379,.T.);
#327=FILL_AREA_STYLE('',(#380));
#328=EDGE_CURVE('',#377,#381,#382,.T.);
#329=EDGE_CURVE('',#377,#374,#383,.T.);
#330=EDGE_CURVE('',#384,#374,#385,.T.);
#331=EDGE_CURVE('',#381,#384,#386,.T.);
#332=FILL_AREA_STYLE('',(#387));
#333=EDGE_CURVE('',#381,#388,#389,.T.);
#334=EDGE_CURVE('',#390,#384,#391,.T.);
#335=EDGE_CURVE('',#388,#390,#392,.T.);
#336=FILL_AREA_STYLE('',(#393));
#337=EDGE_CURVE('',#388,#394,#395,.T.);
#338=EDGE_CURVE('',#396,#390,#397,.T.);
#339=EDGE_CURVE('',#394,#396,#398,.T.);
#340=FILL_AREA_STYLE('',(#399));
#341=EDGE_CURVE('',#400,#396,#401,.T.);
#342=EDGE_CURVE('',#402,#400,#403,.T.);
#343=EDGE_CURVE('',#394,#402,#404,.T.);
#344=FILL_AREA_STYLE('',(#405));
#345=EDGE_CURVE('',#402,#406,#407,.T.);
#346=EDGE_CURVE('',#408,#400,#409,.T.);
#347=EDGE_CURVE('',#406,#408,#410,.T.);
#348=FILL_AREA_STYLE('',(#411));
#349=EDGE_CURVE('',#408,#406,#412,.T.);
#350=EDGE_CURVE('',#365,#368,#413,.T.);
#351=FILL_AREA_STYLE('',(#414));
#352=EDGE_CURVE('',#400,#402,#415,.T.);
#353=FILL_AREA_STYLE('',(#416));
#354=EDGE_CURVE('',#396,#394,#417,.T.);
#355=FILL_AREA_STYLE('',(#418));
#356=EDGE_CURVE('',#390,#388,#419,.T.);
#357=FILL_AREA_STYLE('',(#420));
#358=EDGE_CURVE('',#384,#381,#421,.T.);
#359=FILL_AREA_STYLE('',(#422));
#360=FILL_AREA_STYLE('',(#423));
#361=FILL_AREA_STYLE('',(#424));
#362=EDGE_CURVE('',#366,#370,#425,.T.);
#363=FILL_AREA_STYLE('',(#426));
#364=FILL_AREA_STYLE_COLOUR('',#427);
#365=VERTEX_POINT('',#428);
#366=VERTEX_POINT('',#429);
#367=LINE('',#430,#431);
#368=VERTEX_POINT('',#432);
#369=CIRCLE('',#433,10.5);
#370=VERTEX_POINT('',#434);
#371=LINE('',#435,#436);
#372=CIRCLE('',#437,10.5);
#373=FILL_AREA_STYLE_COLOUR('',#438);
#374=VERTEX_POINT('',#439);
#375=VERTEX_POINT('',#440);
#376=LINE('',#441,#442);
#377=VERTEX_POINT('',#443);
#378=LINE('',#444,#445);
#379=CIRCLE('',#446,3.979941699605);
#380=FILL_AREA_STYLE_COLOUR('',#447);
#381=VERTEX_POINT('',#448);
#382=LINE('',#449,#450);
#383=CIRCLE('',#451,3.979941699605);
#384=VERTEX_POINT('',#452);
#385=LINE('',#453,#454);
#386=CIRCLE('',#455,7.955479729167);
#387=FILL_AREA_STYLE_COLOUR('',#456);
#388=VERTEX_POINT('',#457);
#389=LINE('',#458,#459);
#390=VERTEX_POINT('',#460);
#391=LINE('',#461,#462);
#392=CIRCLE('',#463,12.66789110999);
#393=FILL_AREA_STYLE_COLOUR('',#464);
#394=VERTEX_POINT('',#465);
#395=LINE('',#466,#467);
#396=VERTEX_POINT('',#468);
#397=LINE('',#469,#470);
#398=CIRCLE('',#471,12.66789110999);
#399=FILL_AREA_STYLE_COLOUR('',#472);
#400=VERTEX_POINT('',#473);
#401=LINE('',#474,#475);
#402=VERTEX_POINT('',#476);
#403=CIRCLE('',#477,11.5);
#404=LINE('',#478,#479);
#405=FILL_AREA_STYLE_COLOUR('',#480);
#406=VERTEX_POINT('',#481);
#407=LINE('',#482,#483);
#408=VERTEX_POINT('',#484);
#409=LINE('',#485,#486);
#410=CIRCLE('',#487,11.5);
#411=FILL_AREA_STYLE_COLOUR('',#488);
#412=CIRCLE('',#489,11.5);
#413=CIRCLE('',#490,10.5);
#414=FILL_AREA_STYLE_COLOUR('',#491);
#415=CIRCLE('',#492,11.5);
#416=FILL_AREA_STYLE_COLOUR('',#493);
#417=CIRCLE('',#494,12.66789110999);
#418=FILL_AREA_STYLE_COLOUR('',#495);
#419=CIRCLE('',#496,12.66789110999);
#420=FILL_AREA_STYLE_COLOUR('',#497);
#421=CIRCLE('',#498,7.955479729167);
#422=FILL_AREA_STYLE_COLOUR('',#499);
#423=FILL_AREA_STYLE_COLOUR('',#500);
#424=FILL_AREA_STYLE_COLOUR('',#501);
#425=CIRCLE('',#502,10.5);
#426=FILL_AREA_STYLE_COLOUR('',#503);
#427=COLOUR_RGB('',0.61176472902298,0.61176472902298,0.650980412960052);
#428=CARTESIAN_POINT('',(0.0,-10.5,0.0));
#429=CARTESIAN_POINT('',(-8.341166298535,-10.5,0.0));
#430=CARTESIAN_POINT('',(-4.1705831492675,-10.5,1.28587913910472E-015));
#431=VECTOR('',#504,1.0);
#432=CARTESIAN_POINT('',(0.0,10.5,-1.28587913910472E-015));
#433=AXIS2_PLACEMENT_3D('',#505,#506,#507);
#434=CARTESIAN_POINT('',(-8.341166298535,10.5,-1.28587913910472E-015));
#435=CARTESIAN_POINT('',(-4.1705831492675,10.5,-1.28587913910472E-015));
#436=VECTOR('',#508,1.0);
#437=AXIS2_PLACEMENT_3D('',#509,#510,#511);
#438=COLOUR_RGB('',0.61176472902298,0.61176472902298,0.650980412960052);
#439=CARTESIAN_POINT('',(-9.906772780902,3.97994169960501,-4.87402286321434E-016));
#440=CARTESIAN_POINT('',(-10.0,1.4210854715202E-014,0.0));
#441=CARTESIAN_POINT('',(-9.95198126362001,2.04995679512201,-2.51047302753652E-016));
#442=VECTOR('',#512,1.0);
#443=CARTESIAN_POINT('',(-9.906772780902,-3.97994169960502,0.0));
#444=CARTESIAN_POINT('',(-9.95198126362001,-2.04995679512199,2.51047302753652E-016));
#445=VECTOR('',#513,1.0);
#446=AXIS2_PLACEMENT_3D('',#514,#515,#516);
#447=COLOUR_RGB('',0.61176472902298,0.61176472902298,0.650980412960052);
#448=CARTESIAN_POINT('',(-9.62688900272099,-7.95547972916698,0.0));
#449=CARTESIAN_POINT('',(-9.766830891811,-5.96771071438599,7.30833782461018E-016));
#450=VECTOR('',#517,1.0);
#451=AXIS2_PLACEMENT_3D('',#518,#519,#520);
#452=CARTESIAN_POINT('',(-9.62688900272099,7.95547972916702,-9.74265278600602E-016));
#453=CARTESIAN_POINT('',(-9.766830891811,5.96771071438602,-7.30833782461018E-016));
#454=VECTOR('',#521,1.0);
#455=AXIS2_PLACEMENT_3D('',#522,#523,#524);
#456=COLOUR_RGB('',0.61176472902298,0.61176472902298,0.650980412960052);
#457=CARTESIAN_POINT('',(-9.05072596251301,-12.66789110999,0.0));
#458=CARTESIAN_POINT('',(-9.338807482617,-10.31168541958,1.26281725429031E-015));
#459=VECTOR('',#525,1.0);
#460=CARTESIAN_POINT('',(-9.05072596251301,12.66789110999,-1.55136922997965E-015));
#461=CARTESIAN_POINT('',(-9.338807482617,10.31168541958,-1.26281725429031E-015));
#462=VECTOR('',#526,1.0);
#463=AXIS2_PLACEMENT_3D('',#527,#528,#529);
#464=COLOUR_RGB('',0.61176472902298,0.61176472902298,0.650980412960052);
#465=CARTESIAN_POINT('',(-8.667891109989,-12.66789110999,0.0));
#466=CARTESIAN_POINT('',(-8.85930853625101,-12.66789110999,1.55136922997965E-015));
#467=VECTOR('',#530,1.0);
#468=CARTESIAN_POINT('',(-8.667891109989,12.66789110999,1.55136922997965E-015));
#469=CARTESIAN_POINT('',(-8.85930853625101,12.66789110999,-1.55136922997965E-015));
#470=VECTOR('',#531,1.0);
#471=AXIS2_PLACEMENT_3D('',#532,#533,#534);
#472=COLOUR_RGB('',0.61176472902298,0.61176472902298,0.650980412960052);
#473=CARTESIAN_POINT('',(-7.5,11.5,-1.40834381901946E-015));
#474=CARTESIAN_POINT('',(-8.08394555499399,12.08394555499,1.47985652449894E-015));
#475=VECTOR('',#535,1.0);
#476=CARTESIAN_POINT('',(-7.5,-11.5,0.0));
#477=AXIS2_PLACEMENT_3D('',#536,#537,#538);
#478=CARTESIAN_POINT('',(-8.08394555499399,-12.08394555499,-1.47985652449894E-015));
#479=VECTOR('',#539,1.0);
#480=COLOUR_RGB('',0.61176472902298,0.61176472902298,0.650980412960052);
#481=CARTESIAN_POINT('',(0.0,-11.5,0.0));
#482=CARTESIAN_POINT('',(-3.75,-11.5,1.40834381901946E-015));
#483=VECTOR('',#540,1.0);
#484=CARTESIAN_POINT('',(0.0,11.5,-1.40834381901946E-015));
#485=CARTESIAN_POINT('',(-3.75,11.5,-1.40834381901946E-015));
#486=VECTOR('',#541,1.0);
#487=AXIS2_PLACEMENT_3D('',#542,#543,#544);
#488=COLOUR_RGB('',0.61176472902298,0.61176472902298,0.650980412960052);
#489=AXIS2_PLACEMENT_3D('',#545,#546,#547);
#490=AXIS2_PLACEMENT_3D('',#548,#549,#550);
#491=COLOUR_RGB('',0.61176472902298,0.61176472902298,0.650980412960052);
#492=AXIS2_PLACEMENT_3D('',#551,#552,#553);
#493=COLOUR_RGB('',0.61176472902298,0.61176472902298,0.650980412960052);
#494=AXIS2_PLACEMENT_3D('',#554,#555,#556);
#495=COLOUR_RGB('',0.61176472902298,0.61176472902298,0.650980412960052);
#496=AXIS2_PLACEMENT_3D('',#557,#558,#559);
#497=COLOUR_RGB('',0.61176472902298,0.61176472902298,0.650980412960052);
#498=AXIS2_PLACEMENT_3D('',#560,#561,#562);
#499=COLOUR_RGB('',0.61176472902298,0.61176472902298,0.650980412960052);
#500=COLOUR_RGB('',0.61176472902298,0.61176472902298,0.650980412960052);
#501=COLOUR_RGB('',0.61176472902298,0.61176472902298,0.650980412960052);
#502=AXIS2_PLACEMENT_3D('',#563,#564,#565);
#503=COLOUR_RGB('',0.61176472902298,0.61176472902298,0.650980412960052);
#504=DIRECTION('',(-1.0,0.0,-0.0));
#505=CARTESIAN_POINT('',(0.0,1.4210854715202E-014,0.0));
#506=DIRECTION('',(-1.0,0.0,0.0));
#507=DIRECTION('',(0.0,1.0,0.0));
#508=DIRECTION('',(1.0,0.0,-0.0));
#509=CARTESIAN_POINT('',(-8.341166298535,1.4210854715202E-014,0.0));
#510=DIRECTION('',(-1.0,0.0,0.0));
#511=DIRECTION('',(0.0,1.0,0.0));
#512=DIRECTION('',(-0.0234178437619708,-0.999725764694269,1.22431095775798E-016));
#513=DIRECTION('',(0.0234178437619708,-0.999725764694269,1.22431095775798E-016));
#514=CARTESIAN_POINT('',(-9.906772780902,1.4210854715202E-014,0.0));
#515=DIRECTION('',(1.0,0.0,0.0));
#516=DIRECTION('',(0.0,1.0,0.0));
#517=DIRECTION('',(0.0702276623136267,-0.997530989717093,1.22162313360733E-016));
#518=CARTESIAN_POINT('',(-9.906772780902,1.4210854715202E-014,0.0));
#519=DIRECTION('',(1.0,0.0,0.0));
#520=DIRECTION('',(0.0,1.0,0.0));
#521=DIRECTION('',(-0.0702276623136267,-0.997530989717093,1.22162313360733E-016));
#522=CARTESIAN_POINT('',(-9.62688900272099,1.4210854715202E-014,0.0));
#523=DIRECTION('',(1.0,0.0,0.0));
#524=DIRECTION('',(0.0,1.0,0.0));
#525=DIRECTION('',(0.121361279491405,-0.992608402060052,1.21559470238961E-016));
#526=DIRECTION('',(-0.121361279491405,-0.992608402060052,1.21559470238961E-016));
#527=CARTESIAN_POINT('',(-9.05072596251301,1.4210854715202E-014,0.0));
#528=DIRECTION('',(1.0,0.0,0.0));
#529=DIRECTION('',(0.0,1.0,0.0));
#530=DIRECTION('',(1.0,0.0,0.0));
#531=DIRECTION('',(-1.0,-0.0,-0.0));
#532=CARTESIAN_POINT('',(-8.667891109989,1.4210854715202E-014,0.0));
#533=DIRECTION('',(1.0,0.0,0.0));
#534=DIRECTION('',(0.0,1.0,0.0));
#535=DIRECTION('',(-0.707106781186548,0.707106781186547,8.65956056235493E-017));
#536=CARTESIAN_POINT('',(-7.5,1.4210854715202E-014,0.0));
#537=DIRECTION('',(1.0,0.0,0.0));
#538=DIRECTION('',(0.0,1.0,0.0));
#539=DIRECTION('',(0.707106781186548,0.707106781186547,8.65956056235493E-017));
#540=DIRECTION('',(1.0,0.0,0.0));
#541=DIRECTION('',(-1.0,-0.0,-0.0));
#542=CARTESIAN_POINT('',(0.0,1.4210854715202E-014,0.0));
#543=DIRECTION('',(1.0,0.0,0.0));
#544=DIRECTION('',(0.0,1.0,0.0));
#545=CARTESIAN_POINT('',(0.0,1.4210854715202E-014,0.0));
#546=DIRECTION('',(1.0,0.0,0.0));
#547=DIRECTION('',(0.0,1.0,0.0));
#548=CARTESIAN_POINT('',(0.0,1.4210854715202E-014,0.0));
#549=DIRECTION('',(-1.0,0.0,0.0));
#550=DIRECTION('',(0.0,1.0,0.0));
#551=CARTESIAN_POINT('',(-7.5,1.4210854715202E-014,0.0));
#552=DIRECTION('',(1.0,0.0,0.0));
#553=DIRECTION('',(0.0,1.0,0.0));
#554=CARTESIAN_POINT('',(-8.667891109989,1.4210854715202E-014,0.0));
#555=DIRECTION('',(1.0,0.0,0.0));
#556=DIRECTION('',(0.0,1.0,0.0));
#557=CARTESIAN_POINT('',(-9.05072596251301,1.4210854715202E-014,0.0));
#558=DIRECTION('',(1.0,0.0,0.0));
#559=DIRECTION('',(0.0,1.0,0.0));
#560=CARTESIAN_POINT('',(-9.62688900272099,1.4210854715202E-014,0.0));
#561=DIRECTION('',(1.0,0.0,0.0));
#562=DIRECTION('',(0.0,1.0,0.0));
#563=CARTESIAN_POINT('',(-8.341166298535,1.4210854715202E-014,0.0));
#564=DIRECTION('',(-1.0,0.0,0.0));
#565=DIRECTION('',(0.0,1.0,0.0));
ENDSEC;
END-ISO-10303-21;
