ISO-10303-21;
HEADER;
FILE_DESCRIPTION(('STEP AP214'),'1');
FILE_NAME('cctmp_749A2BEB-0908-4F5C-A15F-2EB0CEAB2E94_2020_1_17_7_50_50_185..stp','2020-01-17T06:50:50',('Bosch Rexroth AG'),('CADClick - www.CADClick.com'),'Spatial InterOp 3D',' ','unknown authorization - (Healing Option Enabled)');
FILE_SCHEMA(('AUTOMOTIVE_DESIGN'));
ENDSEC;
DATA;
#1=MECHANICAL_DESIGN_GEOMETRIC_PRESENTATION_REPRESENTATION(' ',(#10,#11,#12,#13,#14,#15,#16,#17,#18,#19,#20,#21,#22,#23,#24,#25,#26),#6);
#2=PRODUCT_DEFINITION_CONTEXT('',#27,'design');
#3=APPLICATION_PROTOCOL_DEFINITION('INTERNATIONAL STANDARD','automotive_design',1994,#27);
#4=PRODUCT_CATEGORY_RELATIONSHIP('NONE','NONE',#28,#29);
#5=SHAPE_DEFINITION_REPRESENTATION(#30,#31);
#6= (GEOMETRIC_REPRESENTATION_CONTEXT(3)GLOBAL_UNCERTAINTY_ASSIGNED_CONTEXT((#34))GLOBAL_UNIT_ASSIGNED_CONTEXT((#36,#37,#38))REPRESENTATION_CONTEXT('NONE','WORKSPACE'));
#10=STYLED_ITEM('',(#40),#41);
#11=STYLED_ITEM('',(#42),#43);
#12=STYLED_ITEM('',(#44),#45);
#13=STYLED_ITEM('',(#46),#47);
#14=STYLED_ITEM('',(#48),#49);
#15=STYLED_ITEM('',(#50),#51);
#16=STYLED_ITEM('',(#52),#53);
#17=STYLED_ITEM('',(#54),#55);
#18=STYLED_ITEM('',(#56),#57);
#19=STYLED_ITEM('',(#58),#59);
#20=STYLED_ITEM('',(#60),#61);
#21=STYLED_ITEM('',(#62),#63);
#22=STYLED_ITEM('',(#64),#65);
#23=STYLED_ITEM('',(#66),#67);
#24=STYLED_ITEM('',(#68),#69);
#25=STYLED_ITEM('',(#70),#71);
#26=STYLED_ITEM('',(#72),#73);
#27=APPLICATION_CONTEXT(' ');
#28=PRODUCT_CATEGORY('part','NONE');
#29=PRODUCT_RELATED_PRODUCT_CATEGORY('detail',' ',(#74));
#30=PRODUCT_DEFINITION_SHAPE('NONE','NONE',#75);
#31=ADVANCED_BREP_SHAPE_REPRESENTATION('2020_01_17__07-50-50-185',(#76,#77),#6);
#34=UNCERTAINTY_MEASURE_WITH_UNIT(LENGTH_MEASURE(1.0E-006),#36,'','');
#36= (CONVERSION_BASED_UNIT('MILLIMETRE',#80)LENGTH_UNIT()NAMED_UNIT(#83));
#37= (NAMED_UNIT(#85)PLANE_ANGLE_UNIT()SI_UNIT($,.RADIAN.));
#38= (NAMED_UNIT(#85)SOLID_ANGLE_UNIT()SI_UNIT($,.STERADIAN.));
#40=PRESENTATION_STYLE_ASSIGNMENT((#91));
#41=ADVANCED_FACE('',(#92),#93,.F.);
#42=PRESENTATION_STYLE_ASSIGNMENT((#94));
#43=ADVANCED_FACE('',(#95),#96,.T.);
#44=PRESENTATION_STYLE_ASSIGNMENT((#97));
#45=ADVANCED_FACE('',(#98),#99,.T.);
#46=PRESENTATION_STYLE_ASSIGNMENT((#100));
#47=ADVANCED_FACE('',(#101),#102,.T.);
#48=PRESENTATION_STYLE_ASSIGNMENT((#103));
#49=ADVANCED_FACE('',(#104),#105,.T.);
#50=PRESENTATION_STYLE_ASSIGNMENT((#106));
#51=ADVANCED_FACE('',(#107),#108,.T.);
#52=PRESENTATION_STYLE_ASSIGNMENT((#109));
#53=ADVANCED_FACE('',(#110),#111,.T.);
#54=PRESENTATION_STYLE_ASSIGNMENT((#112));
#55=ADVANCED_FACE('',(#113,#114),#115,.T.);
#56=PRESENTATION_STYLE_ASSIGNMENT((#116));
#57=ADVANCED_FACE('',(#117),#118,.T.);
#58=PRESENTATION_STYLE_ASSIGNMENT((#119));
#59=ADVANCED_FACE('',(#120),#121,.T.);
#60=PRESENTATION_STYLE_ASSIGNMENT((#122));
#61=ADVANCED_FACE('',(#123),#124,.T.);
#62=PRESENTATION_STYLE_ASSIGNMENT((#125));
#63=ADVANCED_FACE('',(#126),#127,.T.);
#64=PRESENTATION_STYLE_ASSIGNMENT((#128));
#65=ADVANCED_FACE('',(#129),#130,.T.);
#66=PRESENTATION_STYLE_ASSIGNMENT((#131));
#67=ADVANCED_FACE('',(#132),#133,.T.);
#68=PRESENTATION_STYLE_ASSIGNMENT((#134));
#69=ADVANCED_FACE('',(#135,#136),#137,.T.);
#70=PRESENTATION_STYLE_ASSIGNMENT((#138));
#71=ADVANCED_FACE('',(#139),#140,.F.);
#72=PRESENTATION_STYLE_ASSIGNMENT((#141));
#73=ADVANCED_FACE('',(#142),#143,.T.);
#74=PRODUCT('2020_01_17__07-50-50-185','2020_01_17__07-50-50-185','PART-2020_01_17__07-50-50-185-DESC',(#144));
#75=PRODUCT_DEFINITION('','NONE',#145,#2);
#76=MANIFOLD_SOLID_BREP('2020_01_17__07-50-50-185',#146);
#77=AXIS2_PLACEMENT_3D('',#147,#148,#149);
#80=LENGTH_MEASURE_WITH_UNIT(LENGTH_MEASURE(1.0),#150);
#83=DIMENSIONAL_EXPONENTS(1.0,0.0,0.0,0.0,0.0,0.0,0.0);
#85=DIMENSIONAL_EXPONENTS(0.0,0.0,0.0,0.0,0.0,0.0,0.0);
#91=SURFACE_STYLE_USAGE(.BOTH.,#151);
#92=FACE_OUTER_BOUND('',#152,.T.);
#93=CYLINDRICAL_SURFACE('',#153,7.7);
#94=SURFACE_STYLE_USAGE(.BOTH.,#154);
#95=FACE_OUTER_BOUND('',#155,.T.);
#96=CYLINDRICAL_SURFACE('',#156,8.5);
#97=SURFACE_STYLE_USAGE(.BOTH.,#157);
#98=FACE_OUTER_BOUND('',#158,.T.);
#99=CONICAL_SURFACE('',#159,1.56560106189,1.54671303281641);
#100=SURFACE_STYLE_USAGE(.BOTH.,#160);
#101=FACE_OUTER_BOUND('',#161,.T.);
#102=CONICAL_SURFACE('',#162,4.751152981019,1.49472503776331);
#103=SURFACE_STYLE_USAGE(.BOTH.,#163);
#104=FACE_OUTER_BOUND('',#164,.T.);
#105=CONICAL_SURFACE('',#165,8.220536919219,1.43892132940674);
#106=SURFACE_STYLE_USAGE(.BOTH.,#166);
#107=FACE_OUTER_BOUND('',#167,.T.);
#108=CYLINDRICAL_SURFACE('',#168,9.95);
#109=SURFACE_STYLE_USAGE(.BOTH.,#169);
#110=FACE_OUTER_BOUND('',#170,.T.);
#111=CONICAL_SURFACE('',#171,9.725,0.785398163397448);
#112=SURFACE_STYLE_USAGE(.BOTH.,#172);
#113=FACE_OUTER_BOUND('',#173,.T.);
#114=FACE_BOUND('',#174,.T.);
#115=PLANE('',#175);
#116=SURFACE_STYLE_USAGE(.BOTH.,#176);
#117=FACE_OUTER_BOUND('',#177,.T.);
#118=CONICAL_SURFACE('',#178,9.725,0.785398163397448);
#119=SURFACE_STYLE_USAGE(.BOTH.,#179);
#120=FACE_OUTER_BOUND('',#180,.T.);
#121=CYLINDRICAL_SURFACE('',#181,9.95);
#122=SURFACE_STYLE_USAGE(.BOTH.,#182);
#123=FACE_OUTER_BOUND('',#183,.T.);
#124=CONICAL_SURFACE('',#184,8.220536919219,1.43892132940674);
#125=SURFACE_STYLE_USAGE(.BOTH.,#185);
#126=FACE_OUTER_BOUND('',#186,.T.);
#127=CONICAL_SURFACE('',#187,4.751152981019,1.49472503776331);
#128=SURFACE_STYLE_USAGE(.BOTH.,#188);
#129=FACE_OUTER_BOUND('',#189,.T.);
#130=CONICAL_SURFACE('',#190,1.56560106189,1.54671303281641);
#131=SURFACE_STYLE_USAGE(.BOTH.,#191);
#132=FACE_OUTER_BOUND('',#192,.T.);
#133=CYLINDRICAL_SURFACE('',#193,8.5);
#134=SURFACE_STYLE_USAGE(.BOTH.,#194);
#135=FACE_OUTER_BOUND('',#195,.T.);
#136=FACE_BOUND('',#196,.T.);
#137=PLANE('',#197);
#138=SURFACE_STYLE_USAGE(.BOTH.,#198);
#139=FACE_OUTER_BOUND('',#199,.T.);
#140=CYLINDRICAL_SURFACE('',#200,7.7);
#141=SURFACE_STYLE_USAGE(.BOTH.,#201);
#142=FACE_OUTER_BOUND('',#202,.T.);
#143=PLANE('',#203);
#144=PRODUCT_CONTEXT('',#27,'mechanical');
#145=PRODUCT_DEFINITION_FORMATION_WITH_SPECIFIED_SOURCE(' ','NONE',#74,.NOT_KNOWN.);
#146=CLOSED_SHELL('',(#41,#43,#45,#47,#49,#51,#53,#55,#57,#59,#61,#63,#65,#67,#69,#71,#73));
#147=CARTESIAN_POINT('',(0.0,0.0,0.0));
#148=DIRECTION('',(0.0,0.0,1.0));
#149=DIRECTION('',(1.0,0.0,0.0));
#150= (NAMED_UNIT(#83)LENGTH_UNIT()SI_UNIT(.MILLI.,.METRE.));
#151=SURFACE_SIDE_STYLE('',(#205));
#152=EDGE_LOOP('',(#206,#207,#208,#209));
#153=AXIS2_PLACEMENT_3D('',#210,#211,#212);
#154=SURFACE_SIDE_STYLE('',(#213));
#155=EDGE_LOOP('',(#214,#215,#216,#217));
#156=AXIS2_PLACEMENT_3D('',#218,#219,#220);
#157=SURFACE_SIDE_STYLE('',(#221));
#158=EDGE_LOOP('',(#222,#223,#224));
#159=AXIS2_PLACEMENT_3D('',#225,#226,#227);
#160=SURFACE_SIDE_STYLE('',(#228));
#161=EDGE_LOOP('',(#229,#230,#231,#232));
#162=AXIS2_PLACEMENT_3D('',#233,#234,#235);
#163=SURFACE_SIDE_STYLE('',(#236));
#164=EDGE_LOOP('',(#237,#238,#239,#240));
#165=AXIS2_PLACEMENT_3D('',#241,#242,#243);
#166=SURFACE_SIDE_STYLE('',(#244));
#167=EDGE_LOOP('',(#245,#246,#247,#248));
#168=AXIS2_PLACEMENT_3D('',#249,#250,#251);
#169=SURFACE_SIDE_STYLE('',(#252));
#170=EDGE_LOOP('',(#253,#254,#255,#256));
#171=AXIS2_PLACEMENT_3D('',#257,#258,#259);
#172=SURFACE_SIDE_STYLE('',(#260));
#173=EDGE_LOOP('',(#261,#262));
#174=EDGE_LOOP('',(#263,#264));
#175=AXIS2_PLACEMENT_3D('',#265,#266,#267);
#176=SURFACE_SIDE_STYLE('',(#268));
#177=EDGE_LOOP('',(#269,#270,#271,#272));
#178=AXIS2_PLACEMENT_3D('',#273,#274,#275);
#179=SURFACE_SIDE_STYLE('',(#276));
#180=EDGE_LOOP('',(#277,#278,#279,#280));
#181=AXIS2_PLACEMENT_3D('',#281,#282,#283);
#182=SURFACE_SIDE_STYLE('',(#284));
#183=EDGE_LOOP('',(#285,#286,#287,#288));
#184=AXIS2_PLACEMENT_3D('',#289,#290,#291);
#185=SURFACE_SIDE_STYLE('',(#292));
#186=EDGE_LOOP('',(#293,#294,#295,#296));
#187=AXIS2_PLACEMENT_3D('',#297,#298,#299);
#188=SURFACE_SIDE_STYLE('',(#300));
#189=EDGE_LOOP('',(#301,#302,#303));
#190=AXIS2_PLACEMENT_3D('',#304,#305,#306);
#191=SURFACE_SIDE_STYLE('',(#307));
#192=EDGE_LOOP('',(#308,#309,#310,#311));
#193=AXIS2_PLACEMENT_3D('',#312,#313,#314);
#194=SURFACE_SIDE_STYLE('',(#315));
#195=EDGE_LOOP('',(#316,#317));
#196=EDGE_LOOP('',(#318,#319));
#197=AXIS2_PLACEMENT_3D('',#320,#321,#322);
#198=SURFACE_SIDE_STYLE('',(#323));
#199=EDGE_LOOP('',(#324,#325,#326,#327));
#200=AXIS2_PLACEMENT_3D('',#328,#329,#330);
#201=SURFACE_SIDE_STYLE('',(#331));
#202=EDGE_LOOP('',(#332,#333));
#203=AXIS2_PLACEMENT_3D('',#334,#335,#336);
#205=SURFACE_STYLE_FILL_AREA(#337);
#206=ORIENTED_EDGE('',*,*,#338,.F.);
#207=ORIENTED_EDGE('',*,*,#339,.T.);
#208=ORIENTED_EDGE('',*,*,#340,.F.);
#209=ORIENTED_EDGE('',*,*,#341,.T.);
#210=CARTESIAN_POINT('',(-7.55000000000001,1.4210854715202E-014,4.62304166678126E-016));
#211=DIRECTION('',(1.0,0.0,-6.12323399573677E-017));
#212=DIRECTION('',(0.0,-1.0,0.0));
#213=SURFACE_STYLE_FILL_AREA(#342);
#214=ORIENTED_EDGE('',*,*,#343,.F.);
#215=ORIENTED_EDGE('',*,*,#344,.F.);
#216=ORIENTED_EDGE('',*,*,#345,.F.);
#217=ORIENTED_EDGE('',*,*,#346,.T.);
#218=CARTESIAN_POINT('',(-7.55000000000001,1.4210854715202E-014,4.62304166678126E-016));
#219=DIRECTION('',(1.0,0.0,-6.12323399573676E-017));
#220=DIRECTION('',(0.0,-1.0,0.0));
#221=SURFACE_STYLE_FILL_AREA(#347);
#222=ORIENTED_EDGE('',*,*,#348,.T.);
#223=ORIENTED_EDGE('',*,*,#349,.T.);
#224=ORIENTED_EDGE('',*,*,#350,.F.);
#225=CARTESIAN_POINT('',(-6.962287878018,1.4210854715202E-014,4.26317178227858E-016));
#226=DIRECTION('',(1.0,-0.0,-6.12323399573677E-017));
#227=DIRECTION('',(0.0,-1.0,0.0));
#228=SURFACE_STYLE_FILL_AREA(#351);
#229=ORIENTED_EDGE('',*,*,#352,.F.);
#230=ORIENTED_EDGE('',*,*,#353,.T.);
#231=ORIENTED_EDGE('',*,*,#354,.F.);
#232=ORIENTED_EDGE('',*,*,#355,.F.);
#233=CARTESIAN_POINT('',(-6.79485166113199,1.4210854715202E-014,4.16064666874319E-016));
#234=DIRECTION('',(1.0,-0.0,-6.12323399573677E-017));
#235=DIRECTION('',(0.0,-1.0,0.0));
#236=SURFACE_STYLE_FILL_AREA(#356);
#237=ORIENTED_EDGE('',*,*,#357,.F.);
#238=ORIENTED_EDGE('',*,*,#355,.T.);
#239=ORIENTED_EDGE('',*,*,#358,.F.);
#240=ORIENTED_EDGE('',*,*,#359,.F.);
#241=CARTESIAN_POINT('',(-6.432833392948,1.4210854715202E-014,3.93897441206099E-016));
#242=DIRECTION('',(1.0,-0.0,-6.12323399573677E-017));
#243=DIRECTION('',(0.0,-1.0,0.0));
#244=SURFACE_STYLE_FILL_AREA(#360);
#245=ORIENTED_EDGE('',*,*,#361,.F.);
#246=ORIENTED_EDGE('',*,*,#359,.T.);
#247=ORIENTED_EDGE('',*,*,#362,.F.);
#248=ORIENTED_EDGE('',*,*,#363,.F.);
#249=CARTESIAN_POINT('',(-7.55000000000001,1.4210854715202E-014,4.62304166678126E-016));
#250=DIRECTION('',(1.0,0.0,-6.12323399573677E-017));
#251=DIRECTION('',(0.0,-1.0,0.0));
#252=SURFACE_STYLE_FILL_AREA(#364);
#253=ORIENTED_EDGE('',*,*,#365,.F.);
#254=ORIENTED_EDGE('',*,*,#366,.F.);
#255=ORIENTED_EDGE('',*,*,#367,.F.);
#256=ORIENTED_EDGE('',*,*,#363,.T.);
#257=CARTESIAN_POINT('',(-5.72500000000002,1.4210854715202E-014,3.5055514625593E-016));
#258=DIRECTION('',(-1.0,-0.0,6.12323399573677E-017));
#259=DIRECTION('',(0.0,1.0,0.0));
#260=SURFACE_STYLE_FILL_AREA(#368);
#261=ORIENTED_EDGE('',*,*,#366,.T.);
#262=ORIENTED_EDGE('',*,*,#369,.T.);
#263=ORIENTED_EDGE('',*,*,#370,.T.);
#264=ORIENTED_EDGE('',*,*,#344,.T.);
#265=CARTESIAN_POINT('',(-5.5,1.4210854715202E-014,3.36777869765522E-016));
#266=DIRECTION('',(1.0,0.0,-6.12323399573677E-017));
#267=DIRECTION('',(0.0,-1.0,0.0));
#268=SURFACE_STYLE_FILL_AREA(#371);
#269=ORIENTED_EDGE('',*,*,#365,.T.);
#270=ORIENTED_EDGE('',*,*,#372,.T.);
#271=ORIENTED_EDGE('',*,*,#367,.T.);
#272=ORIENTED_EDGE('',*,*,#369,.F.);
#273=CARTESIAN_POINT('',(-5.72500000000002,1.4210854715202E-014,3.5055514625593E-016));
#274=DIRECTION('',(-1.0,-0.0,6.12323399573677E-017));
#275=DIRECTION('',(0.0,1.0,0.0));
#276=SURFACE_STYLE_FILL_AREA(#373);
#277=ORIENTED_EDGE('',*,*,#361,.T.);
#278=ORIENTED_EDGE('',*,*,#372,.F.);
#279=ORIENTED_EDGE('',*,*,#362,.T.);
#280=ORIENTED_EDGE('',*,*,#374,.T.);
#281=CARTESIAN_POINT('',(-7.55000000000001,1.4210854715202E-014,4.62304166678126E-016));
#282=DIRECTION('',(1.0,0.0,-6.12323399573677E-017));
#283=DIRECTION('',(0.0,-1.0,0.0));
#284=SURFACE_STYLE_FILL_AREA(#375);
#285=ORIENTED_EDGE('',*,*,#357,.T.);
#286=ORIENTED_EDGE('',*,*,#374,.F.);
#287=ORIENTED_EDGE('',*,*,#358,.T.);
#288=ORIENTED_EDGE('',*,*,#376,.T.);
#289=CARTESIAN_POINT('',(-6.432833392948,1.4210854715202E-014,3.93897441206099E-016));
#290=DIRECTION('',(1.0,-0.0,-6.12323399573677E-017));
#291=DIRECTION('',(0.0,-1.0,0.0));
#292=SURFACE_STYLE_FILL_AREA(#377);
#293=ORIENTED_EDGE('',*,*,#352,.T.);
#294=ORIENTED_EDGE('',*,*,#376,.F.);
#295=ORIENTED_EDGE('',*,*,#354,.T.);
#296=ORIENTED_EDGE('',*,*,#350,.T.);
#297=CARTESIAN_POINT('',(-6.79485166113199,1.4210854715202E-014,4.16064666874319E-016));
#298=DIRECTION('',(1.0,-0.0,-6.12323399573677E-017));
#299=DIRECTION('',(0.0,-1.0,0.0));
#300=SURFACE_STYLE_FILL_AREA(#378);
#301=ORIENTED_EDGE('',*,*,#348,.F.);
#302=ORIENTED_EDGE('',*,*,#353,.F.);
#303=ORIENTED_EDGE('',*,*,#349,.F.);
#304=CARTESIAN_POINT('',(-6.962287878018,1.4210854715202E-014,4.26317178227858E-016));
#305=DIRECTION('',(1.0,-0.0,-6.12323399573677E-017));
#306=DIRECTION('',(0.0,-1.0,0.0));
#307=SURFACE_STYLE_FILL_AREA(#379);
#308=ORIENTED_EDGE('',*,*,#343,.T.);
#309=ORIENTED_EDGE('',*,*,#380,.T.);
#310=ORIENTED_EDGE('',*,*,#345,.T.);
#311=ORIENTED_EDGE('',*,*,#370,.F.);
#312=CARTESIAN_POINT('',(-7.55000000000001,1.4210854715202E-014,4.62304166678126E-016));
#313=DIRECTION('',(1.0,0.0,-6.12323399573676E-017));
#314=DIRECTION('',(0.0,-1.0,0.0));
#315=SURFACE_STYLE_FILL_AREA(#381);
#316=ORIENTED_EDGE('',*,*,#380,.F.);
#317=ORIENTED_EDGE('',*,*,#346,.F.);
#318=ORIENTED_EDGE('',*,*,#339,.F.);
#319=ORIENTED_EDGE('',*,*,#382,.F.);
#320=CARTESIAN_POINT('',(0.0,1.4210854715202E-014,0.0));
#321=DIRECTION('',(1.0,0.0,-6.12323399573677E-017));
#322=DIRECTION('',(0.0,-1.0,0.0));
#323=SURFACE_STYLE_FILL_AREA(#383);
#324=ORIENTED_EDGE('',*,*,#338,.T.);
#325=ORIENTED_EDGE('',*,*,#384,.T.);
#326=ORIENTED_EDGE('',*,*,#340,.T.);
#327=ORIENTED_EDGE('',*,*,#382,.T.);
#328=CARTESIAN_POINT('',(-7.55000000000001,1.4210854715202E-014,4.62304166678126E-016));
#329=DIRECTION('',(1.0,0.0,-6.12323399573677E-017));
#330=DIRECTION('',(0.0,-1.0,0.0));
#331=SURFACE_STYLE_FILL_AREA(#385);
#332=ORIENTED_EDGE('',*,*,#384,.F.);
#333=ORIENTED_EDGE('',*,*,#341,.F.);
#334=CARTESIAN_POINT('',(-5.71796902044349,1.4210854715202E-014,3.50124622925493E-016));
#335=DIRECTION('',(1.0,0.0,-6.12323399573677E-017));
#336=DIRECTION('',(0.0,-1.0,0.0));
#337=FILL_AREA_STYLE('',(#386));
#338=EDGE_CURVE('',#387,#388,#389,.T.);
#339=EDGE_CURVE('',#387,#390,#391,.T.);
#340=EDGE_CURVE('',#392,#390,#393,.T.);
#341=EDGE_CURVE('',#392,#388,#394,.T.);
#342=FILL_AREA_STYLE('',(#395));
#343=EDGE_CURVE('',#396,#397,#398,.T.);
#344=EDGE_CURVE('',#399,#396,#400,.T.);
#345=EDGE_CURVE('',#401,#399,#402,.T.);
#346=EDGE_CURVE('',#401,#397,#403,.T.);
#347=FILL_AREA_STYLE('',(#404));
#348=EDGE_CURVE('',#405,#406,#407,.T.);
#349=EDGE_CURVE('',#406,#408,#409,.T.);
#350=EDGE_CURVE('',#405,#408,#410,.T.);
#351=FILL_AREA_STYLE('',(#411));
#352=EDGE_CURVE('',#408,#412,#413,.T.);
#353=EDGE_CURVE('',#408,#405,#414,.T.);
#354=EDGE_CURVE('',#415,#405,#416,.T.);
#355=EDGE_CURVE('',#412,#415,#417,.T.);
#356=FILL_AREA_STYLE('',(#418));
#357=EDGE_CURVE('',#412,#419,#420,.T.);
#358=EDGE_CURVE('',#421,#415,#422,.T.);
#359=EDGE_CURVE('',#419,#421,#423,.T.);
#360=FILL_AREA_STYLE('',(#424));
#361=EDGE_CURVE('',#419,#425,#426,.T.);
#362=EDGE_CURVE('',#427,#421,#428,.T.);
#363=EDGE_CURVE('',#425,#427,#429,.T.);
#364=FILL_AREA_STYLE('',(#430));
#365=EDGE_CURVE('',#431,#427,#432,.T.);
#366=EDGE_CURVE('',#433,#431,#434,.T.);
#367=EDGE_CURVE('',#425,#433,#435,.T.);
#368=FILL_AREA_STYLE('',(#436));
#369=EDGE_CURVE('',#431,#433,#437,.T.);
#370=EDGE_CURVE('',#396,#399,#438,.T.);
#371=FILL_AREA_STYLE('',(#439));
#372=EDGE_CURVE('',#427,#425,#440,.T.);
#373=FILL_AREA_STYLE('',(#441));
#374=EDGE_CURVE('',#421,#419,#442,.T.);
#375=FILL_AREA_STYLE('',(#443));
#376=EDGE_CURVE('',#415,#412,#444,.T.);
#377=FILL_AREA_STYLE('',(#445));
#378=FILL_AREA_STYLE('',(#446));
#379=FILL_AREA_STYLE('',(#447));
#380=EDGE_CURVE('',#397,#401,#448,.T.);
#381=FILL_AREA_STYLE('',(#449));
#382=EDGE_CURVE('',#390,#387,#450,.T.);
#383=FILL_AREA_STYLE('',(#451));
#384=EDGE_CURVE('',#388,#392,#452,.T.);
#385=FILL_AREA_STYLE('',(#453));
#386=FILL_AREA_STYLE_COLOUR('',#454);
#387=VERTEX_POINT('',#455);
#388=VERTEX_POINT('',#456);
#389=LINE('',#457,#458);
#390=VERTEX_POINT('',#459);
#391=CIRCLE('',#460,7.7);
#392=VERTEX_POINT('',#461);
#393=LINE('',#462,#463);
#394=CIRCLE('',#464,7.7);
#395=FILL_AREA_STYLE_COLOUR('',#465);
#396=VERTEX_POINT('',#466);
#397=VERTEX_POINT('',#467);
#398=LINE('',#468,#469);
#399=VERTEX_POINT('',#470);
#400=CIRCLE('',#471,8.5);
#401=VERTEX_POINT('',#472);
#402=LINE('',#473,#474);
#403=CIRCLE('',#475,8.5);
#404=FILL_AREA_STYLE_COLOUR('',#476);
#405=VERTEX_POINT('',#477);
#406=VERTEX_POINT('',#478);
#407=LINE('',#479,#480);
#408=VERTEX_POINT('',#481);
#409=LINE('',#482,#483);
#410=CIRCLE('',#484,3.011232123601);
#411=FILL_AREA_STYLE_COLOUR('',#485);
#412=VERTEX_POINT('',#486);
#413=LINE('',#487,#488);
#414=CIRCLE('',#489,3.011232123601);
#415=VERTEX_POINT('',#490);
#416=LINE('',#491,#492);
#417=CIRCLE('',#493,6.491073838437);
#418=FILL_AREA_STYLE_COLOUR('',#494);
#419=VERTEX_POINT('',#495);
#420=LINE('',#496,#497);
#421=VERTEX_POINT('',#498);
#422=LINE('',#499,#500);
#423=CIRCLE('',#501,9.95);
#424=FILL_AREA_STYLE_COLOUR('',#502);
#425=VERTEX_POINT('',#503);
#426=LINE('',#504,#505);
#427=VERTEX_POINT('',#506);
#428=LINE('',#507,#508);
#429=CIRCLE('',#509,9.95);
#430=FILL_AREA_STYLE_COLOUR('',#510);
#431=VERTEX_POINT('',#511);
#432=LINE('',#512,#513);
#433=VERTEX_POINT('',#514);
#434=CIRCLE('',#515,9.5);
#435=LINE('',#516,#517);
#436=FILL_AREA_STYLE_COLOUR('',#518);
#437=CIRCLE('',#519,9.5);
#438=CIRCLE('',#520,8.5);
#439=FILL_AREA_STYLE_COLOUR('',#521);
#440=CIRCLE('',#522,9.95);
#441=FILL_AREA_STYLE_COLOUR('',#523);
#442=CIRCLE('',#524,9.95);
#443=FILL_AREA_STYLE_COLOUR('',#525);
#444=CIRCLE('',#526,6.491073838437);
#445=FILL_AREA_STYLE_COLOUR('',#527);
#446=FILL_AREA_STYLE_COLOUR('',#528);
#447=FILL_AREA_STYLE_COLOUR('',#529);
#448=CIRCLE('',#530,8.5);
#449=FILL_AREA_STYLE_COLOUR('',#531);
#450=CIRCLE('',#532,7.7);
#451=FILL_AREA_STYLE_COLOUR('',#533);
#452=CIRCLE('',#534,7.7);
#453=FILL_AREA_STYLE_COLOUR('',#535);
#454=COLOUR_RGB('',0.61176472902298,0.61176472902298,0.650980412960052);
#455=CARTESIAN_POINT('',(0.0,-7.69999999999997,0.0));
#456=CARTESIAN_POINT('',(-5.71796902044349,-7.69999999999997,3.50124622925493E-016));
#457=CARTESIAN_POINT('',(-2.85898451022175,-7.69999999999999,1.11804034680621E-015));
#458=VECTOR('',#536,1.0);
#459=CARTESIAN_POINT('',(-5.77407516324815E-032,7.70000000000001,-9.42978035343462E-016));
#460=AXIS2_PLACEMENT_3D('',#537,#538,#539);
#461=CARTESIAN_POINT('',(-5.71796902044349,7.70000000000001,-5.9285341241797E-016));
#462=CARTESIAN_POINT('',(-2.85898451022175,7.70000000000001,-7.67915723880716E-016));
#463=VECTOR('',#540,1.0);
#464=AXIS2_PLACEMENT_3D('',#541,#542,#543);
#465=COLOUR_RGB('',0.61176472902298,0.61176472902298,0.650980412960052);
#466=CARTESIAN_POINT('',(-5.5,-8.49999999999999,3.36777869765522E-016));
#467=CARTESIAN_POINT('',(0.0,-8.49999999999999,0.0));
#468=CARTESIAN_POINT('',(-2.75,-8.49999999999999,1.20933871415801E-015));
#469=VECTOR('',#544,1.0);
#470=CARTESIAN_POINT('',(-5.5,8.50000000000001,-7.04171909509728E-016));
#471=AXIS2_PLACEMENT_3D('',#545,#546,#547);
#472=CARTESIAN_POINT('',(-6.3739790763129E-032,8.50000000000001,-1.04094977927525E-015));
#473=CARTESIAN_POINT('',(-2.75,8.50000000000001,-8.7256084439249E-016));
#474=VECTOR('',#548,1.0);
#475=AXIS2_PLACEMENT_3D('',#549,#550,#551);
#476=COLOUR_RGB('',0.61176472902298,0.61176472902298,0.650980412960052);
#477=CARTESIAN_POINT('',(-6.92746558754601,3.01123212360101,5.54153497338188E-017));
#478=CARTESIAN_POINT('',(-7.0,1.4210854715202E-014,4.28626379701574E-016));
#479=CARTESIAN_POINT('',(-6.962287878018,1.56560106189001,2.3458634530933E-016));
#480=VECTOR('',#552,1.0);
#481=CARTESIAN_POINT('',(-6.92746558754601,-3.01123212360095,4.24184927899582E-016));
#482=CARTESIAN_POINT('',(-6.962287878018,-1.56560106188999,6.18048011146387E-016));
#483=VECTOR('',#553,1.0);
#484=AXIS2_PLACEMENT_3D('',#554,#555,#556);
#485=COLOUR_RGB('',0.61176472902298,0.61176472902298,0.650980412960052);
#486=CARTESIAN_POINT('',(-6.662237734717,-6.49107383843698,4.07944405848994E-016));
#487=CARTESIAN_POINT('',(-6.79485166113199,-4.75115298101899,9.97913095920751E-016));
#488=VECTOR('',#557,1.0);
#489=AXIS2_PLACEMENT_3D('',#558,#559,#560);
#490=CARTESIAN_POINT('',(-6.662237734717,6.49107383843702,-3.86982874078105E-016));
#491=CARTESIAN_POINT('',(-6.79485166113199,4.75115298101901,-1.65783762172113E-016));
#492=VECTOR('',#561,1.0);
#493=AXIS2_PLACEMENT_3D('',#562,#563,#564);
#494=COLOUR_RGB('',0.61176472902298,0.61176472902298,0.650980412960052);
#495=CARTESIAN_POINT('',(-6.20342905117849,-9.94999999999997,3.79850476563173E-016));
#496=CARTESIAN_POINT('',(-6.432833392948,-8.22053691921899,1.40062286374552E-015));
#497=VECTOR('',#565,1.0);
#498=CARTESIAN_POINT('',(-6.20342905117849,9.95000000000001,-8.38673088588445E-016));
#499=CARTESIAN_POINT('',(-6.432833392948,8.22053691921902,-6.1282798133332E-016));
#500=VECTOR('',#566,1.0);
#501=AXIS2_PLACEMENT_3D('',#567,#568,#569);
#502=COLOUR_RGB('',0.61176472902298,0.61176472902298,0.650980412960052);
#503=CARTESIAN_POINT('',(-5.94999999999999,-9.94999999999997,3.64332422746338E-016));
#504=CARTESIAN_POINT('',(-6.07671452558924,-9.94999999999999,1.59061501480637E-015));
#505=VECTOR('',#570,1.0);
#506=CARTESIAN_POINT('',(-5.94999999999999,9.95000000000001,1.58285598789795E-015));
#507=CARTESIAN_POINT('',(-6.07671452558924,9.95000000000001,-8.46432115496862E-016));
#508=VECTOR('',#571,1.0);
#509=AXIS2_PLACEMENT_3D('',#572,#573,#574);
#510=COLOUR_RGB('',0.61176472902298,0.61176472902298,0.650980412960052);
#511=CARTESIAN_POINT('',(-5.5,9.50000000000001,1.50019232895551E-015));
#512=CARTESIAN_POINT('',(-5.72500000000002,9.72500000000001,1.54152415842673E-015));
#513=VECTOR('',#575,1.0);
#514=CARTESIAN_POINT('',(-5.5,-9.49999999999999,3.36777869765522E-016));
#515=AXIS2_PLACEMENT_3D('',#576,#577,#578);
#516=CARTESIAN_POINT('',(-5.72500000000002,-9.72499999999999,-8.40413865914871E-016));
#517=VECTOR('',#579,1.0);
#518=COLOUR_RGB('',0.61176472902298,0.61176472902298,0.650980412960052);
#519=AXIS2_PLACEMENT_3D('',#580,#581,#582);
#520=AXIS2_PLACEMENT_3D('',#583,#584,#585);
#521=COLOUR_RGB('',0.61176472902298,0.61176472902298,0.650980412960052);
#522=AXIS2_PLACEMENT_3D('',#586,#587,#588);
#523=COLOUR_RGB('',0.61176472902298,0.61176472902298,0.650980412960052);
#524=AXIS2_PLACEMENT_3D('',#589,#590,#591);
#525=COLOUR_RGB('',0.61176472902298,0.61176472902298,0.650980412960052);
#526=AXIS2_PLACEMENT_3D('',#592,#593,#594);
#527=COLOUR_RGB('',0.61176472902298,0.61176472902298,0.650980412960052);
#528=COLOUR_RGB('',0.61176472902298,0.61176472902298,0.650980412960052);
#529=COLOUR_RGB('',0.61176472902298,0.61176472902298,0.650980412960052);
#530=AXIS2_PLACEMENT_3D('',#595,#596,#597);
#531=COLOUR_RGB('',0.61176472902298,0.61176472902298,0.650980412960052);
#532=AXIS2_PLACEMENT_3D('',#598,#599,#600);
#533=COLOUR_RGB('',0.61176472902298,0.61176472902298,0.650980412960052);
#534=AXIS2_PLACEMENT_3D('',#601,#602,#603);
#535=COLOUR_RGB('',0.61176472902298,0.61176472902298,0.650980412960052);
#536=DIRECTION('',(-1.0,0.0,6.12323399573677E-017));
#537=CARTESIAN_POINT('',(0.0,1.4210854715202E-014,0.0));
#538=DIRECTION('',(1.0,0.0,-6.12323399573677E-017));
#539=DIRECTION('',(0.0,1.0,0.0));
#540=DIRECTION('',(1.0,0.0,-6.12323399573677E-017));
#541=CARTESIAN_POINT('',(-5.71796902044349,1.4210854715202E-014,3.50124622925493E-016));
#542=DIRECTION('',(-1.0,0.0,6.12323399573677E-017));
#543=DIRECTION('',(0.0,1.0,0.0));
#544=DIRECTION('',(1.0,0.0,-6.12323399573677E-017));
#545=CARTESIAN_POINT('',(-5.5,1.4210854715202E-014,3.36777869765522E-016));
#546=DIRECTION('',(-1.0,0.0,6.12323399573676E-017));
#547=DIRECTION('',(0.0,1.0,0.0));
#548=DIRECTION('',(-1.0,-0.0,6.12323399573677E-017));
#549=CARTESIAN_POINT('',(0.0,1.4210854715202E-014,0.0));
#550=DIRECTION('',(-1.0,0.0,6.12323399573676E-017));
#551=DIRECTION('',(0.0,1.0,0.0));
#552=DIRECTION('',(-0.0240809659739816,-0.999710011492213,1.23903700459971E-016));
#553=DIRECTION('',(0.0240809659739816,-0.999710011492213,1.2095463266993E-016));
#554=CARTESIAN_POINT('',(-6.92746558754601,1.4210854715202E-014,4.24184927899582E-016));
#555=DIRECTION('',(1.0,0.0,-6.12323399573677E-017));
#556=DIRECTION('',(0.0,1.0,0.0));
#557=DIRECTION('',(0.0759979415147578,-0.997107974537121,1.17456977151227E-016));
#558=CARTESIAN_POINT('',(-6.92746558754601,1.4210854715202E-014,4.24184927899582E-016));
#559=DIRECTION('',(1.0,0.0,-6.12323399573677E-017));
#560=DIRECTION('',(0.0,1.0,0.0));
#561=DIRECTION('',(-0.0759979415147578,-0.997107974537121,1.2676404073301E-016));
#562=CARTESIAN_POINT('',(-6.662237734717,1.4210854715202E-014,4.07944405848994E-016));
#563=DIRECTION('',(1.0,0.0,-6.12323399573677E-017));
#564=DIRECTION('',(0.0,1.0,0.0));
#565=DIRECTION('',(0.131493089619431,-0.991317087203855,1.13349700212806E-016));
#566=DIRECTION('',(-0.131493089619431,-0.991317087203855,1.29452959344049E-016));
#567=CARTESIAN_POINT('',(-6.20342905117849,1.4210854715202E-014,3.79850476563173E-016));
#568=DIRECTION('',(1.0,0.0,-6.12323399573677E-017));
#569=DIRECTION('',(0.0,1.0,0.0));
#570=DIRECTION('',(1.0,0.0,-6.12323399573677E-017));
#571=DIRECTION('',(-1.0,-0.0,6.12323399573677E-017));
#572=CARTESIAN_POINT('',(-5.94999999999999,1.4210854715202E-014,3.64332422746338E-016));
#573=DIRECTION('',(1.0,0.0,-6.12323399573677E-017));
#574=DIRECTION('',(0.0,1.0,0.0));
#575=DIRECTION('',(-0.707106781186548,0.707106781186547,1.29893408435324E-016));
#576=CARTESIAN_POINT('',(-5.5,1.4210854715202E-014,3.36777869765522E-016));
#577=DIRECTION('',(1.0,0.0,-6.12323399573677E-017));
#578=DIRECTION('',(0.0,1.0,0.0));
#579=DIRECTION('',(0.707106781186548,0.707106781186547,4.32978028117746E-017));
#580=CARTESIAN_POINT('',(-5.5,1.4210854715202E-014,3.36777869765522E-016));
#581=DIRECTION('',(1.0,0.0,-6.12323399573677E-017));
#582=DIRECTION('',(0.0,1.0,0.0));
#583=CARTESIAN_POINT('',(-5.5,1.4210854715202E-014,3.36777869765522E-016));
#584=DIRECTION('',(-1.0,0.0,6.12323399573676E-017));
#585=DIRECTION('',(0.0,1.0,0.0));
#586=CARTESIAN_POINT('',(-5.94999999999999,1.4210854715202E-014,3.64332422746338E-016));
#587=DIRECTION('',(1.0,0.0,-6.12323399573677E-017));
#588=DIRECTION('',(0.0,1.0,0.0));
#589=CARTESIAN_POINT('',(-6.20342905117849,1.4210854715202E-014,3.79850476563173E-016));
#590=DIRECTION('',(1.0,0.0,-6.12323399573677E-017));
#591=DIRECTION('',(0.0,1.0,0.0));
#592=CARTESIAN_POINT('',(-6.662237734717,1.4210854715202E-014,4.07944405848994E-016));
#593=DIRECTION('',(1.0,0.0,-6.12323399573677E-017));
#594=DIRECTION('',(0.0,1.0,0.0));
#595=CARTESIAN_POINT('',(0.0,1.4210854715202E-014,0.0));
#596=DIRECTION('',(-1.0,0.0,6.12323399573676E-017));
#597=DIRECTION('',(0.0,1.0,0.0));
#598=CARTESIAN_POINT('',(0.0,1.4210854715202E-014,0.0));
#599=DIRECTION('',(1.0,0.0,-6.12323399573677E-017));
#600=DIRECTION('',(0.0,1.0,0.0));
#601=CARTESIAN_POINT('',(-5.71796902044349,1.4210854715202E-014,3.50124622925493E-016));
#602=DIRECTION('',(-1.0,0.0,6.12323399573677E-017));
#603=DIRECTION('',(0.0,1.0,0.0));
ENDSEC;
END-ISO-10303-21;
