ISO-10303-21;
HEADER;
FILE_DESCRIPTION(('STEP AP214'),'1');
FILE_NAME('cctmp_0833A94C-FBC5-40D5-873F-59672413FDC9_2020_1_17_7_36_55_348..stp','2020-01-17T06:36:55',('Bosch Rexroth AG'),('CADClick - www.CADClick.com'),'Spatial InterOp 3D',' ','unknown authorization - (Healing Option Enabled)');
FILE_SCHEMA(('AUTOMOTIVE_DESIGN'));
ENDSEC;
DATA;
#1=MECHANICAL_DESIGN_GEOMETRIC_PRESENTATION_REPRESENTATION(' ',(#10,#11,#12,#13,#14,#15,#16,#17,#18,#19,#20,#21,#22,#23,#24,#25),#6);
#2=PRODUCT_DEFINITION_CONTEXT('',#26,'design');
#3=APPLICATION_PROTOCOL_DEFINITION('INTERNATIONAL STANDARD','automotive_design',1994,#26);
#4=PRODUCT_CATEGORY_RELATIONSHIP('NONE','NONE',#27,#28);
#5=SHAPE_DEFINITION_REPRESENTATION(#29,#30);
#6= (GEOMETRIC_REPRESENTATION_CONTEXT(3)GLOBAL_UNCERTAINTY_ASSIGNED_CONTEXT((#33))GLOBAL_UNIT_ASSIGNED_CONTEXT((#35,#36,#37))REPRESENTATION_CONTEXT('NONE','WORKSPACE'));
#10=STYLED_ITEM('',(#39),#40);
#11=STYLED_ITEM('',(#41),#42);
#12=STYLED_ITEM('',(#43),#44);
#13=STYLED_ITEM('',(#45),#46);
#14=STYLED_ITEM('',(#47),#48);
#15=STYLED_ITEM('',(#49),#50);
#16=STYLED_ITEM('',(#51),#52);
#17=STYLED_ITEM('',(#53),#54);
#18=STYLED_ITEM('',(#55),#56);
#19=STYLED_ITEM('',(#57),#58);
#20=STYLED_ITEM('',(#59),#60);
#21=STYLED_ITEM('',(#61),#62);
#22=STYLED_ITEM('',(#63),#64);
#23=STYLED_ITEM('',(#65),#66);
#24=STYLED_ITEM('',(#67),#68);
#25=STYLED_ITEM('',(#69),#70);
#26=APPLICATION_CONTEXT(' ');
#27=PRODUCT_CATEGORY('part','NONE');
#28=PRODUCT_RELATED_PRODUCT_CATEGORY('detail',' ',(#71));
#29=PRODUCT_DEFINITION_SHAPE('NONE','NONE',#72);
#30=ADVANCED_BREP_SHAPE_REPRESENTATION('2020_01_17__07-36-55-348',(#70,#73),#6);
#33=UNCERTAINTY_MEASURE_WITH_UNIT(LENGTH_MEASURE(1.0E-006),#35,'','');
#35= (CONVERSION_BASED_UNIT('MILLIMETRE',#76)LENGTH_UNIT()NAMED_UNIT(#79));
#36= (NAMED_UNIT(#81)PLANE_ANGLE_UNIT()SI_UNIT($,.RADIAN.));
#37= (NAMED_UNIT(#81)SOLID_ANGLE_UNIT()SI_UNIT($,.STERADIAN.));
#39=PRESENTATION_STYLE_ASSIGNMENT((#87));
#40=ADVANCED_FACE('',(#88),#89,.F.);
#41=PRESENTATION_STYLE_ASSIGNMENT((#90));
#42=ADVANCED_FACE('',(#91),#92,.T.);
#43=PRESENTATION_STYLE_ASSIGNMENT((#93));
#44=ADVANCED_FACE('',(#94),#95,.T.);
#45=PRESENTATION_STYLE_ASSIGNMENT((#96));
#46=ADVANCED_FACE('',(#97),#98,.T.);
#47=PRESENTATION_STYLE_ASSIGNMENT((#99));
#48=ADVANCED_FACE('',(#100),#101,.T.);
#49=PRESENTATION_STYLE_ASSIGNMENT((#102));
#50=ADVANCED_FACE('',(#103),#104,.T.);
#51=PRESENTATION_STYLE_ASSIGNMENT((#105));
#52=ADVANCED_FACE('',(#106),#107,.T.);
#53=PRESENTATION_STYLE_ASSIGNMENT((#108));
#54=ADVANCED_FACE('',(#109),#110,.T.);
#55=PRESENTATION_STYLE_ASSIGNMENT((#111));
#56=ADVANCED_FACE('',(#112),#113,.T.);
#57=PRESENTATION_STYLE_ASSIGNMENT((#114));
#58=ADVANCED_FACE('',(#115),#116,.T.);
#59=PRESENTATION_STYLE_ASSIGNMENT((#117));
#60=ADVANCED_FACE('',(#118),#119,.T.);
#61=PRESENTATION_STYLE_ASSIGNMENT((#120));
#62=ADVANCED_FACE('',(#121),#122,.T.);
#63=PRESENTATION_STYLE_ASSIGNMENT((#123));
#64=ADVANCED_FACE('',(#124,#125),#126,.T.);
#65=PRESENTATION_STYLE_ASSIGNMENT((#127));
#66=ADVANCED_FACE('',(#128),#129,.F.);
#67=PRESENTATION_STYLE_ASSIGNMENT((#130));
#68=ADVANCED_FACE('',(#131),#132,.T.);
#69=PRESENTATION_STYLE_ASSIGNMENT((#133));
#70=MANIFOLD_SOLID_BREP('2020_01_17__07-36-55-348',#134);
#71=PRODUCT('2020_01_17__07-36-55-348','','PART--DESC',(#135));
#72=PRODUCT_DEFINITION('','NONE',#136,#2);
#73=AXIS2_PLACEMENT_3D('',#137,#138,#139);
#76=LENGTH_MEASURE_WITH_UNIT(LENGTH_MEASURE(1.0),#140);
#79=DIMENSIONAL_EXPONENTS(1.0,0.0,0.0,0.0,0.0,0.0,0.0);
#81=DIMENSIONAL_EXPONENTS(0.0,0.0,0.0,0.0,0.0,0.0,0.0);
#87=SURFACE_STYLE_USAGE(.BOTH.,#141);
#88=FACE_OUTER_BOUND('',#142,.T.);
#89=CYLINDRICAL_SURFACE('',#143,14.0);
#90=SURFACE_STYLE_USAGE(.BOTH.,#144);
#91=FACE_OUTER_BOUND('',#145,.T.);
#92=CONICAL_SURFACE('',#146,16.75,0.0748598477110102);
#93=SURFACE_STYLE_USAGE(.BOTH.,#147);
#94=FACE_OUTER_BOUND('',#148,.T.);
#95=CONICAL_SURFACE('',#149,16.6821984833589,0.389999677904947);
#96=SURFACE_STYLE_USAGE(.BOTH.,#150);
#97=FACE_OUTER_BOUND('',#151,.T.);
#98=CONICAL_SURFACE('',#152,14.4341511317545,0.727370149017819);
#99=SURFACE_STYLE_USAGE(.BOTH.,#153);
#100=FACE_OUTER_BOUND('',#154,.T.);
#101=CONICAL_SURFACE('',#155,11.1224658669667,1.06474062013069);
#102=SURFACE_STYLE_USAGE(.BOTH.,#156);
#103=FACE_OUTER_BOUND('',#157,.T.);
#104=CONICAL_SURFACE('',#158,7.12051321857116,1.40211109124356);
#105=SURFACE_STYLE_USAGE(.BOTH.,#159);
#106=FACE_OUTER_BOUND('',#160,.T.);
#107=PLANE('',#161);
#108=SURFACE_STYLE_USAGE(.BOTH.,#162);
#109=FACE_OUTER_BOUND('',#163,.T.);
#110=CONICAL_SURFACE('',#164,7.12051321857116,1.40211109124356);
#111=SURFACE_STYLE_USAGE(.BOTH.,#165);
#112=FACE_OUTER_BOUND('',#166,.T.);
#113=CONICAL_SURFACE('',#167,11.1224658669667,1.06474062013069);
#114=SURFACE_STYLE_USAGE(.BOTH.,#168);
#115=FACE_OUTER_BOUND('',#169,.T.);
#116=CONICAL_SURFACE('',#170,14.4341511317545,0.727370149017819);
#117=SURFACE_STYLE_USAGE(.BOTH.,#171);
#118=FACE_OUTER_BOUND('',#172,.T.);
#119=CONICAL_SURFACE('',#173,16.6821984833589,0.389999677904947);
#120=SURFACE_STYLE_USAGE(.BOTH.,#174);
#121=FACE_OUTER_BOUND('',#175,.T.);
#122=CONICAL_SURFACE('',#176,16.75,0.0748598477110102);
#123=SURFACE_STYLE_USAGE(.BOTH.,#177);
#124=FACE_BOUND('',#178,.T.);
#125=FACE_OUTER_BOUND('',#179,.T.);
#126=PLANE('',#180);
#127=SURFACE_STYLE_USAGE(.BOTH.,#181);
#128=FACE_OUTER_BOUND('',#182,.T.);
#129=CYLINDRICAL_SURFACE('',#183,14.0);
#130=SURFACE_STYLE_USAGE(.BOTH.,#184);
#131=FACE_OUTER_BOUND('',#185,.T.);
#132=PLANE('',#186);
#133=SURFACE_STYLE_USAGE(.BOTH.,#187);
#134=CLOSED_SHELL('',(#40,#42,#44,#46,#48,#50,#52,#54,#56,#58,#60,#62,#64,#66,#68));
#135=PRODUCT_CONTEXT('',#26,'mechanical');
#136=PRODUCT_DEFINITION_FORMATION_WITH_SPECIFIED_SOURCE(' ','NONE',#71,.NOT_KNOWN.);
#137=CARTESIAN_POINT('',(0.0,0.0,0.0));
#138=DIRECTION('',(0.0,0.0,1.0));
#139=DIRECTION('',(1.0,0.0,0.0));
#140= (NAMED_UNIT(#79)LENGTH_UNIT()SI_UNIT(.MILLI.,.METRE.));
#141=SURFACE_SIDE_STYLE('',(#189));
#142=EDGE_LOOP('',(#190,#191,#192,#193));
#143=AXIS2_PLACEMENT_3D('',#194,#195,#196);
#144=SURFACE_SIDE_STYLE('',(#197));
#145=EDGE_LOOP('',(#198,#199,#200,#201));
#146=AXIS2_PLACEMENT_3D('',#202,#203,#204);
#147=SURFACE_SIDE_STYLE('',(#205));
#148=EDGE_LOOP('',(#206,#207,#208,#209));
#149=AXIS2_PLACEMENT_3D('',#210,#211,#212);
#150=SURFACE_SIDE_STYLE('',(#213));
#151=EDGE_LOOP('',(#214,#215,#216,#217));
#152=AXIS2_PLACEMENT_3D('',#218,#219,#220);
#153=SURFACE_SIDE_STYLE('',(#221));
#154=EDGE_LOOP('',(#222,#223,#224,#225));
#155=AXIS2_PLACEMENT_3D('',#226,#227,#228);
#156=SURFACE_SIDE_STYLE('',(#229));
#157=EDGE_LOOP('',(#230,#231,#232,#233));
#158=AXIS2_PLACEMENT_3D('',#234,#235,#236);
#159=SURFACE_SIDE_STYLE('',(#237));
#160=EDGE_LOOP('',(#238,#239));
#161=AXIS2_PLACEMENT_3D('',#240,#241,#242);
#162=SURFACE_SIDE_STYLE('',(#243));
#163=EDGE_LOOP('',(#244,#245,#246,#247));
#164=AXIS2_PLACEMENT_3D('',#248,#249,#250);
#165=SURFACE_SIDE_STYLE('',(#251));
#166=EDGE_LOOP('',(#252,#253,#254,#255));
#167=AXIS2_PLACEMENT_3D('',#256,#257,#258);
#168=SURFACE_SIDE_STYLE('',(#259));
#169=EDGE_LOOP('',(#260,#261,#262,#263));
#170=AXIS2_PLACEMENT_3D('',#264,#265,#266);
#171=SURFACE_SIDE_STYLE('',(#267));
#172=EDGE_LOOP('',(#268,#269,#270,#271));
#173=AXIS2_PLACEMENT_3D('',#272,#273,#274);
#174=SURFACE_SIDE_STYLE('',(#275));
#175=EDGE_LOOP('',(#276,#277,#278,#279));
#176=AXIS2_PLACEMENT_3D('',#280,#281,#282);
#177=SURFACE_SIDE_STYLE('',(#283));
#178=EDGE_LOOP('',(#284,#285));
#179=EDGE_LOOP('',(#286,#287));
#180=AXIS2_PLACEMENT_3D('',#288,#289,#290);
#181=SURFACE_SIDE_STYLE('',(#291));
#182=EDGE_LOOP('',(#292,#293,#294,#295));
#183=AXIS2_PLACEMENT_3D('',#296,#297,#298);
#184=SURFACE_SIDE_STYLE('',(#299));
#185=EDGE_LOOP('',(#300,#301));
#186=AXIS2_PLACEMENT_3D('',#302,#303,#304);
#187=SURFACE_SIDE_STYLE('',(#305));
#189=SURFACE_STYLE_FILL_AREA(#306);
#190=ORIENTED_EDGE('',*,*,#307,.F.);
#191=ORIENTED_EDGE('',*,*,#308,.T.);
#192=ORIENTED_EDGE('',*,*,#309,.F.);
#193=ORIENTED_EDGE('',*,*,#310,.F.);
#194=CARTESIAN_POINT('',(6.25,1.24344978758018E-015,0.0));
#195=DIRECTION('',(-1.0,-0.0,0.0));
#196=DIRECTION('',(0.0,-1.0,0.0));
#197=SURFACE_STYLE_FILL_AREA(#311);
#198=ORIENTED_EDGE('',*,*,#312,.F.);
#199=ORIENTED_EDGE('',*,*,#313,.F.);
#200=ORIENTED_EDGE('',*,*,#314,.F.);
#201=ORIENTED_EDGE('',*,*,#315,.T.);
#202=CARTESIAN_POINT('',(4.99999999999999,1.06581410364015E-015,0.0));
#203=DIRECTION('',(-1.0,-0.0,-0.0));
#204=DIRECTION('',(0.0,-1.0,0.0));
#205=SURFACE_STYLE_FILL_AREA(#316);
#206=ORIENTED_EDGE('',*,*,#317,.F.);
#207=ORIENTED_EDGE('',*,*,#318,.T.);
#208=ORIENTED_EDGE('',*,*,#319,.F.);
#209=ORIENTED_EDGE('',*,*,#320,.F.);
#210=CARTESIAN_POINT('',(-6.98952070779122,-6.3799926519312E-016,0.0));
#211=DIRECTION('',(1.0,0.0,-0.0));
#212=DIRECTION('',(0.0,-1.0,0.0));
#213=SURFACE_STYLE_FILL_AREA(#321);
#214=ORIENTED_EDGE('',*,*,#322,.F.);
#215=ORIENTED_EDGE('',*,*,#323,.T.);
#216=ORIENTED_EDGE('',*,*,#324,.F.);
#217=ORIENTED_EDGE('',*,*,#318,.F.);
#218=CARTESIAN_POINT('',(-10.5857115182856,-1.14904871655393E-015,0.0));
#219=DIRECTION('',(1.0,0.0,-0.0));
#220=DIRECTION('',(0.0,-1.0,0.0));
#221=SURFACE_STYLE_FILL_AREA(#325);
#222=ORIENTED_EDGE('',*,*,#326,.F.);
#223=ORIENTED_EDGE('',*,*,#327,.T.);
#224=ORIENTED_EDGE('',*,*,#328,.F.);
#225=ORIENTED_EDGE('',*,*,#323,.F.);
#226=CARTESIAN_POINT('',(-13.2350597301158,-1.52554374183692E-015,0.0));
#227=DIRECTION('',(1.0,0.0,-0.0));
#228=DIRECTION('',(0.0,-1.0,0.0));
#229=SURFACE_STYLE_FILL_AREA(#329);
#230=ORIENTED_EDGE('',*,*,#330,.F.);
#231=ORIENTED_EDGE('',*,*,#331,.T.);
#232=ORIENTED_EDGE('',*,*,#332,.F.);
#233=ORIENTED_EDGE('',*,*,#327,.F.);
#234=CARTESIAN_POINT('',(-14.6388689196214,-1.72503702623621E-015,0.0));
#235=DIRECTION('',(1.0,0.0,-0.0));
#236=DIRECTION('',(0.0,-1.0,0.0));
#237=SURFACE_STYLE_FILL_AREA(#333);
#238=ORIENTED_EDGE('',*,*,#331,.F.);
#239=ORIENTED_EDGE('',*,*,#334,.F.);
#240=CARTESIAN_POINT('',(-15.0,-2.49999999999999,0.0));
#241=DIRECTION('',(-1.0,-1.4210854715202E-016,0.0));
#242=DIRECTION('',(-1.4210854715202E-016,1.0,0.0));
#243=SURFACE_STYLE_FILL_AREA(#335);
#244=ORIENTED_EDGE('',*,*,#330,.T.);
#245=ORIENTED_EDGE('',*,*,#336,.F.);
#246=ORIENTED_EDGE('',*,*,#332,.T.);
#247=ORIENTED_EDGE('',*,*,#334,.T.);
#248=CARTESIAN_POINT('',(-14.6388689196214,-1.72503702623621E-015,0.0));
#249=DIRECTION('',(1.0,0.0,-0.0));
#250=DIRECTION('',(0.0,-1.0,0.0));
#251=SURFACE_STYLE_FILL_AREA(#337);
#252=ORIENTED_EDGE('',*,*,#326,.T.);
#253=ORIENTED_EDGE('',*,*,#338,.F.);
#254=ORIENTED_EDGE('',*,*,#328,.T.);
#255=ORIENTED_EDGE('',*,*,#336,.T.);
#256=CARTESIAN_POINT('',(-13.2350597301158,-1.52554374183692E-015,0.0));
#257=DIRECTION('',(1.0,0.0,-0.0));
#258=DIRECTION('',(0.0,-1.0,0.0));
#259=SURFACE_STYLE_FILL_AREA(#339);
#260=ORIENTED_EDGE('',*,*,#322,.T.);
#261=ORIENTED_EDGE('',*,*,#340,.F.);
#262=ORIENTED_EDGE('',*,*,#324,.T.);
#263=ORIENTED_EDGE('',*,*,#338,.T.);
#264=CARTESIAN_POINT('',(-10.5857115182856,-1.14904871655393E-015,0.0));
#265=DIRECTION('',(1.0,0.0,-0.0));
#266=DIRECTION('',(0.0,-1.0,0.0));
#267=SURFACE_STYLE_FILL_AREA(#341);
#268=ORIENTED_EDGE('',*,*,#317,.T.);
#269=ORIENTED_EDGE('',*,*,#315,.F.);
#270=ORIENTED_EDGE('',*,*,#319,.T.);
#271=ORIENTED_EDGE('',*,*,#340,.T.);
#272=CARTESIAN_POINT('',(-6.98952070779122,-6.3799926519312E-016,0.0));
#273=DIRECTION('',(1.0,0.0,-0.0));
#274=DIRECTION('',(0.0,-1.0,0.0));
#275=SURFACE_STYLE_FILL_AREA(#342);
#276=ORIENTED_EDGE('',*,*,#312,.T.);
#277=ORIENTED_EDGE('',*,*,#320,.T.);
#278=ORIENTED_EDGE('',*,*,#314,.T.);
#279=ORIENTED_EDGE('',*,*,#343,.F.);
#280=CARTESIAN_POINT('',(4.99999999999999,1.06581410364015E-015,0.0));
#281=DIRECTION('',(-1.0,-0.0,-0.0));
#282=DIRECTION('',(0.0,-1.0,0.0));
#283=SURFACE_STYLE_FILL_AREA(#344);
#284=ORIENTED_EDGE('',*,*,#308,.F.);
#285=ORIENTED_EDGE('',*,*,#345,.F.);
#286=ORIENTED_EDGE('',*,*,#343,.T.);
#287=ORIENTED_EDGE('',*,*,#313,.T.);
#288=CARTESIAN_POINT('',(15.0,-15.0,0.0));
#289=DIRECTION('',(1.0,2.86985925493722E-048,2.01948391736579E-032));
#290=DIRECTION('',(0.0,1.0,-1.4210854715202E-016));
#291=SURFACE_STYLE_FILL_AREA(#346);
#292=ORIENTED_EDGE('',*,*,#307,.T.);
#293=ORIENTED_EDGE('',*,*,#347,.F.);
#294=ORIENTED_EDGE('',*,*,#309,.T.);
#295=ORIENTED_EDGE('',*,*,#345,.T.);
#296=CARTESIAN_POINT('',(6.25,1.24344978758018E-015,0.0));
#297=DIRECTION('',(-1.0,-0.0,0.0));
#298=DIRECTION('',(0.0,-1.0,0.0));
#299=SURFACE_STYLE_FILL_AREA(#348);
#300=ORIENTED_EDGE('',*,*,#310,.T.);
#301=ORIENTED_EDGE('',*,*,#347,.T.);
#302=CARTESIAN_POINT('',(-2.5,-7.0,0.0));
#303=DIRECTION('',(1.0,2.86985925493722E-048,2.01948391736579E-032));
#304=DIRECTION('',(0.0,1.0,-1.4210854715202E-016));
#305=SURFACE_STYLE_FILL_AREA(#349);
#306=FILL_AREA_STYLE('',(#350));
#307=EDGE_CURVE('',#351,#352,#353,.T.);
#308=EDGE_CURVE('',#351,#354,#355,.T.);
#309=EDGE_CURVE('',#356,#354,#357,.T.);
#310=EDGE_CURVE('',#352,#356,#358,.T.);
#311=FILL_AREA_STYLE('',(#359));
#312=EDGE_CURVE('',#360,#361,#362,.T.);
#313=EDGE_CURVE('',#363,#360,#364,.T.);
#314=EDGE_CURVE('',#365,#363,#366,.T.);
#315=EDGE_CURVE('',#365,#361,#367,.T.);
#316=FILL_AREA_STYLE('',(#368));
#317=EDGE_CURVE('',#369,#361,#370,.T.);
#318=EDGE_CURVE('',#369,#371,#372,.T.);
#319=EDGE_CURVE('',#365,#371,#373,.T.);
#320=EDGE_CURVE('',#361,#365,#374,.T.);
#321=FILL_AREA_STYLE('',(#375));
#322=EDGE_CURVE('',#376,#369,#377,.T.);
#323=EDGE_CURVE('',#376,#378,#379,.T.);
#324=EDGE_CURVE('',#371,#378,#380,.T.);
#325=FILL_AREA_STYLE('',(#381));
#326=EDGE_CURVE('',#382,#376,#383,.T.);
#327=EDGE_CURVE('',#382,#384,#385,.T.);
#328=EDGE_CURVE('',#378,#384,#386,.T.);
#329=FILL_AREA_STYLE('',(#387));
#330=EDGE_CURVE('',#388,#382,#389,.T.);
#331=EDGE_CURVE('',#388,#390,#391,.T.);
#332=EDGE_CURVE('',#384,#390,#392,.T.);
#333=FILL_AREA_STYLE('',(#393));
#334=EDGE_CURVE('',#390,#388,#394,.T.);
#335=FILL_AREA_STYLE('',(#395));
#336=EDGE_CURVE('',#384,#382,#396,.T.);
#337=FILL_AREA_STYLE('',(#397));
#338=EDGE_CURVE('',#378,#376,#398,.T.);
#339=FILL_AREA_STYLE('',(#399));
#340=EDGE_CURVE('',#371,#369,#400,.T.);
#341=FILL_AREA_STYLE('',(#401));
#342=FILL_AREA_STYLE('',(#402));
#343=EDGE_CURVE('',#360,#363,#403,.T.);
#344=FILL_AREA_STYLE('',(#404));
#345=EDGE_CURVE('',#354,#351,#405,.T.);
#346=FILL_AREA_STYLE('',(#406));
#347=EDGE_CURVE('',#356,#352,#407,.T.);
#348=FILL_AREA_STYLE('',(#408));
#349=FILL_AREA_STYLE('',(#409));
#350=FILL_AREA_STYLE_COLOUR('',#410);
#351=VERTEX_POINT('',#411);
#352=VERTEX_POINT('',#412);
#353=LINE('',#413,#414);
#354=VERTEX_POINT('',#415);
#355=CIRCLE('',#416,14.0);
#356=VERTEX_POINT('',#417);
#357=LINE('',#418,#419);
#358=CIRCLE('',#420,14.0);
#359=FILL_AREA_STYLE_COLOUR('',#421);
#360=VERTEX_POINT('',#422);
#361=VERTEX_POINT('',#423);
#362=LINE('',#424,#425);
#363=VERTEX_POINT('',#426);
#364=CIRCLE('',#427,16.0);
#365=VERTEX_POINT('',#428);
#366=LINE('',#429,#430);
#367=CIRCLE('',#431,17.5);
#368=FILL_AREA_STYLE_COLOUR('',#432);
#369=VERTEX_POINT('',#433);
#370=LINE('',#434,#435);
#371=VERTEX_POINT('',#436);
#372=CIRCLE('',#437,15.8643969667179);
#373=LINE('',#438,#439);
#374=CIRCLE('',#440,17.5);
#375=FILL_AREA_STYLE_COLOUR('',#441);
#376=VERTEX_POINT('',#442);
#377=LINE('',#443,#444);
#378=VERTEX_POINT('',#445);
#379=CIRCLE('',#446,13.0039052967911);
#380=LINE('',#447,#448);
#381=FILL_AREA_STYLE_COLOUR('',#449);
#382=VERTEX_POINT('',#450);
#383=LINE('',#451,#452);
#384=VERTEX_POINT('',#453);
#385=CIRCLE('',#454,9.24102643714235);
#386=LINE('',#455,#456);
#387=FILL_AREA_STYLE_COLOUR('',#457);
#388=VERTEX_POINT('',#458);
#389=LINE('',#459,#460);
#390=VERTEX_POINT('',#461);
#391=CIRCLE('',#462,4.99999999999998);
#392=LINE('',#463,#464);
#393=FILL_AREA_STYLE_COLOUR('',#465);
#394=CIRCLE('',#466,4.99999999999998);
#395=FILL_AREA_STYLE_COLOUR('',#467);
#396=CIRCLE('',#468,9.24102643714235);
#397=FILL_AREA_STYLE_COLOUR('',#469);
#398=CIRCLE('',#470,13.0039052967911);
#399=FILL_AREA_STYLE_COLOUR('',#471);
#400=CIRCLE('',#472,15.8643969667179);
#401=FILL_AREA_STYLE_COLOUR('',#473);
#402=FILL_AREA_STYLE_COLOUR('',#474);
#403=CIRCLE('',#475,16.0);
#404=FILL_AREA_STYLE_COLOUR('',#476);
#405=CIRCLE('',#477,14.0);
#406=FILL_AREA_STYLE_COLOUR('',#478);
#407=CIRCLE('',#479,14.0);
#408=FILL_AREA_STYLE_COLOUR('',#480);
#409=FILL_AREA_STYLE_COLOUR('',#481);
#410=COLOUR_RGB('',0.749019622802734,0.749019622802734,0.749019622802734);
#411=CARTESIAN_POINT('',(15.0,-14.0,0.0));
#412=CARTESIAN_POINT('',(-2.5,-14.0,0.0));
#413=CARTESIAN_POINT('',(6.25,-14.0,-1.71450551880629E-015));
#414=VECTOR('',#482,1.0);
#415=CARTESIAN_POINT('',(15.0,14.0,1.71450551880629E-015));
#416=AXIS2_PLACEMENT_3D('',#483,#484,#485);
#417=CARTESIAN_POINT('',(-2.5,14.0,1.71450551880629E-015));
#418=CARTESIAN_POINT('',(6.25,14.0,1.71450551880629E-015));
#419=VECTOR('',#486,1.0);
#420=AXIS2_PLACEMENT_3D('',#487,#488,#489);
#421=COLOUR_RGB('',0.749019622802734,0.749019622802734,0.749019622802734);
#422=CARTESIAN_POINT('',(15.0,-16.0,0.0));
#423=CARTESIAN_POINT('',(-5.00000000000001,-17.5,0.0));
#424=CARTESIAN_POINT('',(4.99999999999999,-16.75,2.05128338857182E-015));
#425=VECTOR('',#490,1.0);
#426=CARTESIAN_POINT('',(15.0,16.0,-1.95943487863577E-015));
#427=AXIS2_PLACEMENT_3D('',#491,#492,#493);
#428=CARTESIAN_POINT('',(-5.00000000000001,17.5,2.14313189850787E-015));
#429=CARTESIAN_POINT('',(4.99999999999999,16.75,-2.05128338857182E-015));
#430=VECTOR('',#494,1.0);
#431=AXIS2_PLACEMENT_3D('',#495,#496,#497);
#432=COLOUR_RGB('',0.749019622802734,0.749019622802734,0.749019622802734);
#433=CARTESIAN_POINT('',(-8.97904141558244,-15.8643969667179,0.0));
#434=CARTESIAN_POINT('',(-6.98952070779122,-16.6821984833589,-2.04298009753863E-015));
#435=VECTOR('',#498,1.0);
#436=CARTESIAN_POINT('',(-8.97904141558244,15.8643969667179,1.94282829656941E-015));
#437=AXIS2_PLACEMENT_3D('',#499,#500,#501);
#438=CARTESIAN_POINT('',(-6.98952070779122,16.6821984833589,2.04298009753863E-015));
#439=VECTOR('',#502,1.0);
#440=AXIS2_PLACEMENT_3D('',#503,#504,#505);
#441=COLOUR_RGB('',0.749019622802734,0.749019622802734,0.749019622802734);
#442=CARTESIAN_POINT('',(-12.1923816209888,-13.0039052967911,0.0));
#443=CARTESIAN_POINT('',(-10.5857115182856,-14.4341511317545,-1.76767369819123E-015));
#444=VECTOR('',#506,1.0);
#445=CARTESIAN_POINT('',(-12.1923816209888,13.0039052967911,1.59251909981305E-015));
#446=AXIS2_PLACEMENT_3D('',#507,#508,#509);
#447=CARTESIAN_POINT('',(-10.5857115182856,14.4341511317545,1.76767369819123E-015));
#448=VECTOR('',#510,1.0);
#449=COLOUR_RGB('',0.749019622802734,0.749019622802734,0.749019622802734);
#450=CARTESIAN_POINT('',(-14.2777378392429,-9.24102643714235,0.0));
#451=CARTESIAN_POINT('',(-13.2350597301158,-11.1224658669667,-1.36210922226065E-015));
#452=VECTOR('',#511,1.0);
#453=CARTESIAN_POINT('',(-14.2777378392429,9.24102643714235,1.13169934470824E-015));
#454=AXIS2_PLACEMENT_3D('',#512,#513,#514);
#455=CARTESIAN_POINT('',(-13.2350597301158,11.1224658669667,1.36210922226065E-015));
#456=VECTOR('',#515,1.0);
#457=COLOUR_RGB('',0.749019622802734,0.749019622802734,0.749019622802734);
#458=CARTESIAN_POINT('',(-15.0,-4.99999999999998,0.0));
#459=CARTESIAN_POINT('',(-14.6388689196214,-7.12051321857116,-8.72011372140959E-016));
#460=VECTOR('',#516,1.0);
#461=CARTESIAN_POINT('',(-15.0,4.99999999999998,6.12323399573674E-016));
#462=AXIS2_PLACEMENT_3D('',#517,#518,#519);
#463=CARTESIAN_POINT('',(-14.6388689196214,7.12051321857116,8.72011372140959E-016));
#464=VECTOR('',#520,1.0);
#465=COLOUR_RGB('',0.749019622802734,0.749019622802734,0.749019622802734);
#466=AXIS2_PLACEMENT_3D('',#521,#522,#523);
#467=COLOUR_RGB('',0.749019622802734,0.749019622802734,0.749019622802734);
#468=AXIS2_PLACEMENT_3D('',#524,#525,#526);
#469=COLOUR_RGB('',0.749019622802734,0.749019622802734,0.749019622802734);
#470=AXIS2_PLACEMENT_3D('',#527,#528,#529);
#471=COLOUR_RGB('',0.749019622802734,0.749019622802734,0.749019622802734);
#472=AXIS2_PLACEMENT_3D('',#530,#531,#532);
#473=COLOUR_RGB('',0.749019622802734,0.749019622802734,0.749019622802734);
#474=COLOUR_RGB('',0.749019622802734,0.749019622802734,0.749019622802734);
#475=AXIS2_PLACEMENT_3D('',#533,#534,#535);
#476=COLOUR_RGB('',0.749019622802734,0.749019622802734,0.749019622802734);
#477=AXIS2_PLACEMENT_3D('',#536,#537,#538);
#478=COLOUR_RGB('',0.749019622802734,0.749019622802734,0.749019622802734);
#479=AXIS2_PLACEMENT_3D('',#539,#540,#541);
#480=COLOUR_RGB('',0.749019622802734,0.749019622802734,0.749019622802734);
#481=COLOUR_RGB('',0.749019622802734,0.749019622802734,0.749019622802734);
#482=DIRECTION('',(-1.0,-0.0,-0.0));
#483=CARTESIAN_POINT('',(15.0,2.48689957516035E-015,0.0));
#484=DIRECTION('',(1.0,0.0,0.0));
#485=DIRECTION('',(0.0,-1.0,0.0));
#486=DIRECTION('',(1.0,0.0,0.0));
#487=CARTESIAN_POINT('',(-2.5,-1.97215226305253E-031,0.0));
#488=DIRECTION('',(1.0,0.0,0.0));
#489=DIRECTION('',(0.0,-1.0,0.0));
#490=DIRECTION('',(-0.997199309888438,-0.0747899482418769,9.15912707228107E-018));
#491=CARTESIAN_POINT('',(15.0,2.48689957516035E-015,0.0));
#492=DIRECTION('',(1.0,0.0,0.0));
#493=DIRECTION('',(0.0,-1.0,0.0));
#494=DIRECTION('',(0.997199309888438,-0.0747899482418769,9.15912707228107E-018));
#495=CARTESIAN_POINT('',(-5.00000000000001,-3.55271367880052E-016,0.0));
#496=DIRECTION('',(1.0,0.0,0.0));
#497=DIRECTION('',(0.0,-1.0,0.0));
#498=DIRECTION('',(0.924909182314073,-0.38018811721451,-4.65596160820608E-017));
#499=CARTESIAN_POINT('',(-8.97904141558244,-9.20727162506188E-016,0.0));
#500=DIRECTION('',(1.0,0.0,0.0));
#501=DIRECTION('',(0.0,-1.0,0.0));
#502=DIRECTION('',(-0.924909182314073,-0.38018811721451,-4.65596160820608E-017));
#503=CARTESIAN_POINT('',(-5.00000000000001,-3.55271367880052E-016,0.0));
#504=DIRECTION('',(1.0,0.0,0.0));
#505=DIRECTION('',(0.0,-1.0,0.0));
#506=DIRECTION('',(0.74692559123304,-0.6649076335561,-8.14277005163119E-017));
#507=CARTESIAN_POINT('',(-12.1923816209888,-1.37737027060166E-015,0.0));
#508=DIRECTION('',(1.0,0.0,0.0));
#509=DIRECTION('',(0.0,-1.0,0.0));
#510=DIRECTION('',(-0.74692559123304,-0.6649076335561,-8.14277005163119E-017));
#511=DIRECTION('',(0.484731098071654,-0.874663228083957,-1.07115352260491E-016));
#512=CARTESIAN_POINT('',(-14.2777378392429,-1.67371721307217E-015,0.0));
#513=DIRECTION('',(1.0,0.0,0.0));
#514=DIRECTION('',(0.0,-1.0,0.0));
#515=DIRECTION('',(-0.484731098071654,-0.874663228083957,-1.07115352260491E-016));
#516=DIRECTION('',(0.167886391402886,-0.985806349939843,-1.20726459103296E-016));
#517=CARTESIAN_POINT('',(-15.0,-1.77635683940025E-015,0.0));
#518=DIRECTION('',(1.0,0.0,0.0));
#519=DIRECTION('',(0.0,-1.0,0.0));
#520=DIRECTION('',(-0.167886391402886,-0.985806349939843,-1.20726459103296E-016));
#521=CARTESIAN_POINT('',(-15.0,-1.77635683940025E-015,0.0));
#522=DIRECTION('',(1.0,0.0,0.0));
#523=DIRECTION('',(0.0,-1.0,0.0));
#524=CARTESIAN_POINT('',(-14.2777378392429,-1.67371721307217E-015,0.0));
#525=DIRECTION('',(1.0,0.0,0.0));
#526=DIRECTION('',(0.0,-1.0,0.0));
#527=CARTESIAN_POINT('',(-12.1923816209888,-1.37737027060166E-015,0.0));
#528=DIRECTION('',(1.0,0.0,0.0));
#529=DIRECTION('',(0.0,-1.0,0.0));
#530=CARTESIAN_POINT('',(-8.97904141558244,-9.20727162506188E-016,0.0));
#531=DIRECTION('',(1.0,0.0,0.0));
#532=DIRECTION('',(0.0,-1.0,0.0));
#533=CARTESIAN_POINT('',(15.0,2.48689957516035E-015,0.0));
#534=DIRECTION('',(1.0,0.0,0.0));
#535=DIRECTION('',(0.0,-1.0,0.0));
#536=CARTESIAN_POINT('',(15.0,2.48689957516035E-015,0.0));
#537=DIRECTION('',(1.0,0.0,0.0));
#538=DIRECTION('',(0.0,-1.0,0.0));
#539=CARTESIAN_POINT('',(-2.5,-1.97215226305253E-031,0.0));
#540=DIRECTION('',(1.0,0.0,0.0));
#541=DIRECTION('',(0.0,-1.0,0.0));
ENDSEC;
END-ISO-10303-21;
