ISO-10303-21;
HEADER;
FILE_DESCRIPTION(('STEP AP214'),'1');
FILE_NAME('cctmp_D1D760BC-6E75-4C96-BD4B-F975368F7556_2020_1_17_7_23_0_451..stp','2020-01-17T06:23:00',('Bosch Rexroth AG'),('CADClick - www.CADClick.com'),'Spatial InterOp 3D',' ','unknown authorization - (Healing Option Enabled)');
FILE_SCHEMA(('AUTOMOTIVE_DESIGN'));
ENDSEC;
DATA;
#1=MECHANICAL_DESIGN_GEOMETRIC_PRESENTATION_REPRESENTATION(' ',(#10,#11,#12,#13,#14,#15,#16),#6);
#2=PRODUCT_DEFINITION_CONTEXT('',#17,'design');
#3=APPLICATION_PROTOCOL_DEFINITION('INTERNATIONAL STANDARD','automotive_design',1994,#17);
#4=PRODUCT_CATEGORY_RELATIONSHIP('NONE','NONE',#18,#19);
#5=SHAPE_DEFINITION_REPRESENTATION(#20,#21);
#6= (GEOMETRIC_REPRESENTATION_CONTEXT(3)GLOBAL_UNCERTAINTY_ASSIGNED_CONTEXT((#24))GLOBAL_UNIT_ASSIGNED_CONTEXT((#26,#27,#28))REPRESENTATION_CONTEXT('NONE','WORKSPACE'));
#10=STYLED_ITEM('',(#30),#31);
#11=STYLED_ITEM('',(#32),#33);
#12=STYLED_ITEM('',(#34),#35);
#13=STYLED_ITEM('',(#36),#37);
#14=STYLED_ITEM('',(#38),#39);
#15=STYLED_ITEM('',(#40),#41);
#16=STYLED_ITEM('',(#42),#43);
#17=APPLICATION_CONTEXT(' ');
#18=PRODUCT_CATEGORY('part','NONE');
#19=PRODUCT_RELATED_PRODUCT_CATEGORY('detail',' ',(#44));
#20=PRODUCT_DEFINITION_SHAPE('NONE','NONE',#45);
#21=ADVANCED_BREP_SHAPE_REPRESENTATION('2020_01_17__07-23-00-451',(#43,#46),#6);
#24=UNCERTAINTY_MEASURE_WITH_UNIT(LENGTH_MEASURE(1.0E-006),#26,'','');
#26= (CONVERSION_BASED_UNIT('MILLIMETRE',#49)LENGTH_UNIT()NAMED_UNIT(#52));
#27= (NAMED_UNIT(#54)PLANE_ANGLE_UNIT()SI_UNIT($,.RADIAN.));
#28= (NAMED_UNIT(#54)SOLID_ANGLE_UNIT()SI_UNIT($,.STERADIAN.));
#30=PRESENTATION_STYLE_ASSIGNMENT((#60));
#31=ADVANCED_FACE('',(#61),#62,.T.);
#32=PRESENTATION_STYLE_ASSIGNMENT((#63));
#33=ADVANCED_FACE('',(#64),#65,.F.);
#34=PRESENTATION_STYLE_ASSIGNMENT((#66));
#35=ADVANCED_FACE('',(#67,#68),#69,.F.);
#36=PRESENTATION_STYLE_ASSIGNMENT((#70));
#37=ADVANCED_FACE('',(#71),#72,.F.);
#38=PRESENTATION_STYLE_ASSIGNMENT((#73));
#39=ADVANCED_FACE('',(#74,#75),#76,.T.);
#40=PRESENTATION_STYLE_ASSIGNMENT((#77));
#41=ADVANCED_FACE('',(#78),#79,.T.);
#42=PRESENTATION_STYLE_ASSIGNMENT((#80));
#43=MANIFOLD_SOLID_BREP('2020_01_17__07-23-00-451',#81);
#44=PRODUCT('2020_01_17__07-23-00-451','','PART--DESC',(#82));
#45=PRODUCT_DEFINITION('','NONE',#83,#2);
#46=AXIS2_PLACEMENT_3D('',#84,#85,#86);
#49=LENGTH_MEASURE_WITH_UNIT(LENGTH_MEASURE(1.0),#87);
#52=DIMENSIONAL_EXPONENTS(1.0,0.0,0.0,0.0,0.0,0.0,0.0);
#54=DIMENSIONAL_EXPONENTS(0.0,0.0,0.0,0.0,0.0,0.0,0.0);
#60=SURFACE_STYLE_USAGE(.BOTH.,#88);
#61=FACE_OUTER_BOUND('',#89,.T.);
#62=CYLINDRICAL_SURFACE('',#90,20.0);
#63=SURFACE_STYLE_USAGE(.BOTH.,#91);
#64=FACE_OUTER_BOUND('',#92,.T.);
#65=CYLINDRICAL_SURFACE('',#93,14.3);
#66=SURFACE_STYLE_USAGE(.BOTH.,#94);
#67=FACE_OUTER_BOUND('',#95,.T.);
#68=FACE_BOUND('',#96,.T.);
#69=PLANE('',#97);
#70=SURFACE_STYLE_USAGE(.BOTH.,#98);
#71=FACE_OUTER_BOUND('',#99,.T.);
#72=CYLINDRICAL_SURFACE('',#100,14.3);
#73=SURFACE_STYLE_USAGE(.BOTH.,#101);
#74=FACE_OUTER_BOUND('',#102,.T.);
#75=FACE_BOUND('',#103,.T.);
#76=PLANE('',#104);
#77=SURFACE_STYLE_USAGE(.BOTH.,#105);
#78=FACE_OUTER_BOUND('',#106,.T.);
#79=CYLINDRICAL_SURFACE('',#107,20.0);
#80=SURFACE_STYLE_USAGE(.BOTH.,#108);
#81=CLOSED_SHELL('',(#31,#33,#35,#37,#39,#41));
#82=PRODUCT_CONTEXT('',#17,'mechanical');
#83=PRODUCT_DEFINITION_FORMATION_WITH_SPECIFIED_SOURCE(' ','NONE',#44,.NOT_KNOWN.);
#84=CARTESIAN_POINT('',(0.0,0.0,0.0));
#85=DIRECTION('',(0.0,0.0,1.0));
#86=DIRECTION('',(1.0,0.0,0.0));
#87= (NAMED_UNIT(#52)LENGTH_UNIT()SI_UNIT(.MILLI.,.METRE.));
#88=SURFACE_SIDE_STYLE('',(#110));
#89=EDGE_LOOP('',(#111,#112,#113,#114));
#90=AXIS2_PLACEMENT_3D('',#115,#116,#117);
#91=SURFACE_SIDE_STYLE('',(#118));
#92=EDGE_LOOP('',(#119,#120,#121,#122));
#93=AXIS2_PLACEMENT_3D('',#123,#124,#125);
#94=SURFACE_SIDE_STYLE('',(#126));
#95=EDGE_LOOP('',(#127,#128));
#96=EDGE_LOOP('',(#129,#130));
#97=AXIS2_PLACEMENT_3D('',#131,#132,#133);
#98=SURFACE_SIDE_STYLE('',(#134));
#99=EDGE_LOOP('',(#135,#136,#137,#138));
#100=AXIS2_PLACEMENT_3D('',#139,#140,#141);
#101=SURFACE_SIDE_STYLE('',(#142));
#102=EDGE_LOOP('',(#143,#144));
#103=EDGE_LOOP('',(#145,#146));
#104=AXIS2_PLACEMENT_3D('',#147,#148,#149);
#105=SURFACE_SIDE_STYLE('',(#150));
#106=EDGE_LOOP('',(#151,#152,#153,#154));
#107=AXIS2_PLACEMENT_3D('',#155,#156,#157);
#108=SURFACE_SIDE_STYLE('',(#158));
#110=SURFACE_STYLE_FILL_AREA(#159);
#111=ORIENTED_EDGE('',*,*,#160,.F.);
#112=ORIENTED_EDGE('',*,*,#161,.T.);
#113=ORIENTED_EDGE('',*,*,#162,.F.);
#114=ORIENTED_EDGE('',*,*,#163,.F.);
#115=CARTESIAN_POINT('',(0.0,5.6843418860808E-014,20.5));
#116=DIRECTION('',(0.0,-2.22044604925031E-016,-1.0));
#117=DIRECTION('',(0.0,-1.0,2.22044604925031E-016));
#118=SURFACE_STYLE_FILL_AREA(#164);
#119=ORIENTED_EDGE('',*,*,#165,.F.);
#120=ORIENTED_EDGE('',*,*,#166,.F.);
#121=ORIENTED_EDGE('',*,*,#167,.F.);
#122=ORIENTED_EDGE('',*,*,#168,.T.);
#123=CARTESIAN_POINT('',(0.0,5.6843418860808E-014,20.5));
#124=DIRECTION('',(0.0,-2.22044604925031E-016,-1.0));
#125=DIRECTION('',(0.0,-1.0,2.22044604925031E-016));
#126=SURFACE_STYLE_FILL_AREA(#169);
#127=ORIENTED_EDGE('',*,*,#161,.F.);
#128=ORIENTED_EDGE('',*,*,#170,.F.);
#129=ORIENTED_EDGE('',*,*,#171,.F.);
#130=ORIENTED_EDGE('',*,*,#168,.F.);
#131=CARTESIAN_POINT('',(0.0,5.6843418860808E-014,20.5));
#132=DIRECTION('',(0.0,2.22044604925031E-016,1.0));
#133=DIRECTION('',(1.0,-0.0,0.0));
#134=SURFACE_STYLE_FILL_AREA(#172);
#135=ORIENTED_EDGE('',*,*,#165,.T.);
#136=ORIENTED_EDGE('',*,*,#171,.T.);
#137=ORIENTED_EDGE('',*,*,#167,.T.);
#138=ORIENTED_EDGE('',*,*,#173,.F.);
#139=CARTESIAN_POINT('',(0.0,5.6843418860808E-014,20.5));
#140=DIRECTION('',(0.0,-2.22044604925031E-016,-1.0));
#141=DIRECTION('',(0.0,-1.0,2.22044604925031E-016));
#142=SURFACE_STYLE_FILL_AREA(#174);
#143=ORIENTED_EDGE('',*,*,#163,.T.);
#144=ORIENTED_EDGE('',*,*,#175,.T.);
#145=ORIENTED_EDGE('',*,*,#173,.T.);
#146=ORIENTED_EDGE('',*,*,#166,.T.);
#147=CARTESIAN_POINT('',(0.0,5.6843418860808E-014,30.5));
#148=DIRECTION('',(0.0,2.22044604925031E-016,1.0));
#149=DIRECTION('',(1.0,-0.0,0.0));
#150=SURFACE_STYLE_FILL_AREA(#176);
#151=ORIENTED_EDGE('',*,*,#160,.T.);
#152=ORIENTED_EDGE('',*,*,#175,.F.);
#153=ORIENTED_EDGE('',*,*,#162,.T.);
#154=ORIENTED_EDGE('',*,*,#170,.T.);
#155=CARTESIAN_POINT('',(0.0,5.6843418860808E-014,20.5));
#156=DIRECTION('',(0.0,-2.22044604925031E-016,-1.0));
#157=DIRECTION('',(0.0,-1.0,2.22044604925031E-016));
#158=SURFACE_STYLE_FILL_AREA(#177);
#159=FILL_AREA_STYLE('',(#178));
#160=EDGE_CURVE('',#179,#180,#181,.T.);
#161=EDGE_CURVE('',#179,#182,#183,.T.);
#162=EDGE_CURVE('',#184,#182,#185,.T.);
#163=EDGE_CURVE('',#180,#184,#186,.T.);
#164=FILL_AREA_STYLE('',(#187));
#165=EDGE_CURVE('',#188,#189,#190,.T.);
#166=EDGE_CURVE('',#191,#188,#192,.T.);
#167=EDGE_CURVE('',#193,#191,#194,.T.);
#168=EDGE_CURVE('',#193,#189,#195,.T.);
#169=FILL_AREA_STYLE('',(#196));
#170=EDGE_CURVE('',#182,#179,#197,.T.);
#171=EDGE_CURVE('',#189,#193,#198,.T.);
#172=FILL_AREA_STYLE('',(#199));
#173=EDGE_CURVE('',#188,#191,#200,.T.);
#174=FILL_AREA_STYLE('',(#201));
#175=EDGE_CURVE('',#184,#180,#202,.T.);
#176=FILL_AREA_STYLE('',(#203));
#177=FILL_AREA_STYLE('',(#204));
#178=FILL_AREA_STYLE_COLOUR('',#205);
#179=VERTEX_POINT('',#206);
#180=VERTEX_POINT('',#207);
#181=LINE('',#208,#209);
#182=VERTEX_POINT('',#210);
#183=CIRCLE('',#211,20.0);
#184=VERTEX_POINT('',#212);
#185=LINE('',#213,#214);
#186=CIRCLE('',#215,20.0);
#187=FILL_AREA_STYLE_COLOUR('',#216);
#188=VERTEX_POINT('',#217);
#189=VERTEX_POINT('',#218);
#190=LINE('',#219,#220);
#191=VERTEX_POINT('',#221);
#192=CIRCLE('',#222,14.3);
#193=VERTEX_POINT('',#223);
#194=LINE('',#224,#225);
#195=CIRCLE('',#226,14.3);
#196=FILL_AREA_STYLE_COLOUR('',#227);
#197=CIRCLE('',#228,20.0);
#198=CIRCLE('',#229,14.3);
#199=FILL_AREA_STYLE_COLOUR('',#230);
#200=CIRCLE('',#231,14.3);
#201=FILL_AREA_STYLE_COLOUR('',#232);
#202=CIRCLE('',#233,20.0);
#203=FILL_AREA_STYLE_COLOUR('',#234);
#204=FILL_AREA_STYLE_COLOUR('',#235);
#205=COLOUR_RGB('',0.749019622802734,0.749019622802734,0.749019622802734);
#206=CARTESIAN_POINT('',(0.0,-19.9999999999999,20.5));
#207=CARTESIAN_POINT('',(0.0,-19.9999999999999,30.5));
#208=CARTESIAN_POINT('',(2.44929359829471E-015,-19.9999999999999,20.5));
#209=VECTOR('',#236,1.0);
#210=CARTESIAN_POINT('',(-2.44929359829471E-015,20.0000000000001,20.5));
#211=AXIS2_PLACEMENT_3D('',#237,#238,#239);
#212=CARTESIAN_POINT('',(-2.44929359829471E-015,20.0000000000001,30.5));
#213=CARTESIAN_POINT('',(-2.44929359829471E-015,20.0000000000001,20.5));
#214=VECTOR('',#240,1.0);
#215=AXIS2_PLACEMENT_3D('',#241,#242,#243);
#216=COLOUR_RGB('',0.749019622802734,0.749019622802734,0.749019622802734);
#217=CARTESIAN_POINT('',(0.0,-14.2999999999999,30.5));
#218=CARTESIAN_POINT('',(0.0,-14.2999999999999,20.5));
#219=CARTESIAN_POINT('',(1.75124492278071E-015,-14.2999999999999,20.5));
#220=VECTOR('',#244,1.0);
#221=CARTESIAN_POINT('',(-1.75124492278071E-015,14.3000000000001,30.5));
#222=AXIS2_PLACEMENT_3D('',#245,#246,#247);
#223=CARTESIAN_POINT('',(-1.75124492278071E-015,14.3000000000001,20.5));
#224=CARTESIAN_POINT('',(-1.75124492278071E-015,14.3000000000001,20.5));
#225=VECTOR('',#248,1.0);
#226=AXIS2_PLACEMENT_3D('',#249,#250,#251);
#227=COLOUR_RGB('',0.749019622802734,0.749019622802734,0.749019622802734);
#228=AXIS2_PLACEMENT_3D('',#252,#253,#254);
#229=AXIS2_PLACEMENT_3D('',#255,#256,#257);
#230=COLOUR_RGB('',0.749019622802734,0.749019622802734,0.749019622802734);
#231=AXIS2_PLACEMENT_3D('',#258,#259,#260);
#232=COLOUR_RGB('',0.749019622802734,0.749019622802734,0.749019622802734);
#233=AXIS2_PLACEMENT_3D('',#261,#262,#263);
#234=COLOUR_RGB('',0.749019622802734,0.749019622802734,0.749019622802734);
#235=COLOUR_RGB('',0.749019622802734,0.749019622802734,0.749019622802734);
#236=DIRECTION('',(-0.0,2.22044604925031E-016,1.0));
#237=CARTESIAN_POINT('',(0.0,5.6843418860808E-014,20.5));
#238=DIRECTION('',(0.0,2.22044604925031E-016,1.0));
#239=DIRECTION('',(0.0,-1.0,2.22044604925031E-016));
#240=DIRECTION('',(0.0,-2.22044604925031E-016,-1.0));
#241=CARTESIAN_POINT('',(0.0,5.6843418860808E-014,30.5));
#242=DIRECTION('',(0.0,2.22044604925031E-016,1.0));
#243=DIRECTION('',(0.0,-1.0,2.22044604925031E-016));
#244=DIRECTION('',(-0.0,-2.22044604925031E-016,-1.0));
#245=CARTESIAN_POINT('',(0.0,5.6843418860808E-014,30.5));
#246=DIRECTION('',(0.0,-2.22044604925031E-016,-1.0));
#247=DIRECTION('',(0.0,-1.0,2.22044604925031E-016));
#248=DIRECTION('',(-0.0,2.22044604925031E-016,1.0));
#249=CARTESIAN_POINT('',(0.0,5.6843418860808E-014,20.5));
#250=DIRECTION('',(0.0,-2.22044604925031E-016,-1.0));
#251=DIRECTION('',(0.0,-1.0,2.22044604925031E-016));
#252=CARTESIAN_POINT('',(0.0,5.6843418860808E-014,20.5));
#253=DIRECTION('',(0.0,2.22044604925031E-016,1.0));
#254=DIRECTION('',(0.0,-1.0,2.22044604925031E-016));
#255=CARTESIAN_POINT('',(0.0,5.6843418860808E-014,20.5));
#256=DIRECTION('',(0.0,-2.22044604925031E-016,-1.0));
#257=DIRECTION('',(0.0,-1.0,2.22044604925031E-016));
#258=CARTESIAN_POINT('',(0.0,5.6843418860808E-014,30.5));
#259=DIRECTION('',(0.0,-2.22044604925031E-016,-1.0));
#260=DIRECTION('',(0.0,-1.0,2.22044604925031E-016));
#261=CARTESIAN_POINT('',(0.0,5.6843418860808E-014,30.5));
#262=DIRECTION('',(0.0,2.22044604925031E-016,1.0));
#263=DIRECTION('',(0.0,-1.0,2.22044604925031E-016));
ENDSEC;
END-ISO-10303-21;
