ISO-10303-21;
HEADER;
FILE_DESCRIPTION(('STEP AP214'),'1');
FILE_NAME('cctmp_627F4AF1-616C-4529-A647-9FAF5BE92251_2020_1_17_7_0_27_351..stp','2020-01-17T06:00:27',('Bosch Rexroth AG'),('CADClick - www.CADClick.com'),'Spatial InterOp 3D',' ','unknown authorization - (Healing Option Enabled)');
FILE_SCHEMA(('AUTOMOTIVE_DESIGN'));
ENDSEC;
DATA;
#1=MECHANICAL_DESIGN_GEOMETRIC_PRESENTATION_REPRESENTATION(' ',(#10,#11,#12,#13,#14,#15,#16,#17,#18,#19,#20,#21,#22,#23,#24,#25,#26,#27),#6);
#2=PRODUCT_DEFINITION_CONTEXT('',#28,'design');
#3=APPLICATION_PROTOCOL_DEFINITION('INTERNATIONAL STANDARD','automotive_design',1994,#28);
#4=PRODUCT_CATEGORY_RELATIONSHIP('NONE','NONE',#29,#30);
#5=SHAPE_DEFINITION_REPRESENTATION(#31,#32);
#6= (GEOMETRIC_REPRESENTATION_CONTEXT(3)GLOBAL_UNCERTAINTY_ASSIGNED_CONTEXT((#35))GLOBAL_UNIT_ASSIGNED_CONTEXT((#37,#38,#39))REPRESENTATION_CONTEXT('NONE','WORKSPACE'));
#10=STYLED_ITEM('',(#41),#42);
#11=STYLED_ITEM('',(#43),#44);
#12=STYLED_ITEM('',(#45),#46);
#13=STYLED_ITEM('',(#47),#48);
#14=STYLED_ITEM('',(#49),#50);
#15=STYLED_ITEM('',(#51),#52);
#16=STYLED_ITEM('',(#53),#54);
#17=STYLED_ITEM('',(#55),#56);
#18=STYLED_ITEM('',(#57),#58);
#19=STYLED_ITEM('',(#59),#60);
#20=STYLED_ITEM('',(#61),#62);
#21=STYLED_ITEM('',(#63),#64);
#22=STYLED_ITEM('',(#65),#66);
#23=STYLED_ITEM('',(#67),#68);
#24=STYLED_ITEM('',(#69),#70);
#25=STYLED_ITEM('',(#71),#72);
#26=STYLED_ITEM('',(#73),#74);
#27=STYLED_ITEM('',(#75),#76);
#28=APPLICATION_CONTEXT(' ');
#29=PRODUCT_CATEGORY('part','NONE');
#30=PRODUCT_RELATED_PRODUCT_CATEGORY('detail',' ',(#77));
#31=PRODUCT_DEFINITION_SHAPE('NONE','NONE',#78);
#32=ADVANCED_BREP_SHAPE_REPRESENTATION('2020_01_17__07-00-27-335',(#76,#79),#6);
#35=UNCERTAINTY_MEASURE_WITH_UNIT(LENGTH_MEASURE(1.0E-006),#37,'','');
#37= (CONVERSION_BASED_UNIT('MILLIMETRE',#82)LENGTH_UNIT()NAMED_UNIT(#85));
#38= (NAMED_UNIT(#87)PLANE_ANGLE_UNIT()SI_UNIT($,.RADIAN.));
#39= (NAMED_UNIT(#87)SOLID_ANGLE_UNIT()SI_UNIT($,.STERADIAN.));
#41=PRESENTATION_STYLE_ASSIGNMENT((#93));
#42=ADVANCED_FACE('',(#94),#95,.T.);
#43=PRESENTATION_STYLE_ASSIGNMENT((#96));
#44=ADVANCED_FACE('',(#97),#98,.T.);
#45=PRESENTATION_STYLE_ASSIGNMENT((#99));
#46=ADVANCED_FACE('',(#100),#101,.T.);
#47=PRESENTATION_STYLE_ASSIGNMENT((#102));
#48=ADVANCED_FACE('',(#103),#104,.F.);
#49=PRESENTATION_STYLE_ASSIGNMENT((#105));
#50=ADVANCED_FACE('',(#106,#107),#108,.T.);
#51=PRESENTATION_STYLE_ASSIGNMENT((#109));
#52=ADVANCED_FACE('',(#110),#111,.T.);
#53=PRESENTATION_STYLE_ASSIGNMENT((#112));
#54=ADVANCED_FACE('',(#113),#114,.F.);
#55=PRESENTATION_STYLE_ASSIGNMENT((#115));
#56=ADVANCED_FACE('',(#116),#117,.T.);
#57=PRESENTATION_STYLE_ASSIGNMENT((#118));
#58=ADVANCED_FACE('',(#119),#120,.F.);
#59=PRESENTATION_STYLE_ASSIGNMENT((#121));
#60=ADVANCED_FACE('',(#122),#123,.T.);
#61=PRESENTATION_STYLE_ASSIGNMENT((#124));
#62=ADVANCED_FACE('',(#125),#126,.F.);
#63=PRESENTATION_STYLE_ASSIGNMENT((#127));
#64=ADVANCED_FACE('',(#128),#129,.T.);
#65=PRESENTATION_STYLE_ASSIGNMENT((#130));
#66=ADVANCED_FACE('',(#131),#132,.T.);
#67=PRESENTATION_STYLE_ASSIGNMENT((#133));
#68=ADVANCED_FACE('',(#134),#135,.F.);
#69=PRESENTATION_STYLE_ASSIGNMENT((#136));
#70=ADVANCED_FACE('',(#137),#138,.T.);
#71=PRESENTATION_STYLE_ASSIGNMENT((#139));
#72=ADVANCED_FACE('',(#140),#141,.T.);
#73=PRESENTATION_STYLE_ASSIGNMENT((#142));
#74=ADVANCED_FACE('',(#143),#144,.T.);
#75=PRESENTATION_STYLE_ASSIGNMENT((#145));
#76=MANIFOLD_SOLID_BREP('2020_01_17__07-00-27-335',#146);
#77=PRODUCT('2020_01_17__07-00-27-335','','PART--DESC',(#147));
#78=PRODUCT_DEFINITION('','NONE',#148,#2);
#79=AXIS2_PLACEMENT_3D('',#149,#150,#151);
#82=LENGTH_MEASURE_WITH_UNIT(LENGTH_MEASURE(1.0),#152);
#85=DIMENSIONAL_EXPONENTS(1.0,0.0,0.0,0.0,0.0,0.0,0.0);
#87=DIMENSIONAL_EXPONENTS(0.0,0.0,0.0,0.0,0.0,0.0,0.0);
#93=SURFACE_STYLE_USAGE(.BOTH.,#153);
#94=FACE_OUTER_BOUND('',#154,.T.);
#95=CONICAL_SURFACE('',#155,13.58969196398,0.7853981634);
#96=SURFACE_STYLE_USAGE(.BOTH.,#156);
#97=FACE_OUTER_BOUND('',#157,.T.);
#98=CYLINDRICAL_SURFACE('',#158,7.15);
#99=SURFACE_STYLE_USAGE(.BOTH.,#159);
#100=FACE_OUTER_BOUND('',#160,.T.);
#101=CYLINDRICAL_SURFACE('',#161,7.15);
#102=SURFACE_STYLE_USAGE(.BOTH.,#162);
#103=FACE_OUTER_BOUND('',#163,.T.);
#104=PLANE('',#164);
#105=SURFACE_STYLE_USAGE(.BOTH.,#165);
#106=FACE_OUTER_BOUND('',#166,.T.);
#107=FACE_BOUND('',#167,.T.);
#108=PLANE('',#168);
#109=SURFACE_STYLE_USAGE(.BOTH.,#169);
#110=FACE_OUTER_BOUND('',#170,.T.);
#111=CONICAL_SURFACE('',#171,13.58969196398,0.7853981634);
#112=SURFACE_STYLE_USAGE(.BOTH.,#172);
#113=FACE_OUTER_BOUND('',#173,.T.);
#114=PLANE('',#174);
#115=SURFACE_STYLE_USAGE(.BOTH.,#175);
#116=FACE_OUTER_BOUND('',#176,.T.);
#117=PLANE('',#177);
#118=SURFACE_STYLE_USAGE(.BOTH.,#178);
#119=FACE_OUTER_BOUND('',#179,.T.);
#120=PLANE('',#180);
#121=SURFACE_STYLE_USAGE(.BOTH.,#181);
#122=FACE_OUTER_BOUND('',#182,.T.);
#123=PLANE('',#183);
#124=SURFACE_STYLE_USAGE(.BOTH.,#184);
#125=FACE_OUTER_BOUND('',#185,.T.);
#126=PLANE('',#186);
#127=SURFACE_STYLE_USAGE(.BOTH.,#187);
#128=FACE_OUTER_BOUND('',#188,.T.);
#129=PLANE('',#189);
#130=SURFACE_STYLE_USAGE(.BOTH.,#190);
#131=FACE_OUTER_BOUND('',#191,.T.);
#132=PLANE('',#192);
#133=SURFACE_STYLE_USAGE(.BOTH.,#193);
#134=FACE_OUTER_BOUND('',#194,.T.);
#135=PLANE('',#195);
#136=SURFACE_STYLE_USAGE(.BOTH.,#196);
#137=FACE_OUTER_BOUND('',#197,.T.);
#138=CYLINDRICAL_SURFACE('',#198,4.0);
#139=SURFACE_STYLE_USAGE(.BOTH.,#199);
#140=FACE_OUTER_BOUND('',#200,.T.);
#141=CYLINDRICAL_SURFACE('',#201,4.0);
#142=SURFACE_STYLE_USAGE(.BOTH.,#202);
#143=FACE_OUTER_BOUND('',#203,.T.);
#144=PLANE('',#204);
#145=SURFACE_STYLE_USAGE(.BOTH.,#205);
#146=CLOSED_SHELL('',(#42,#44,#46,#48,#50,#52,#54,#56,#58,#60,#62,#64,#66,#68,#70,#72,#74));
#147=PRODUCT_CONTEXT('',#28,'mechanical');
#148=PRODUCT_DEFINITION_FORMATION_WITH_SPECIFIED_SOURCE(' ','NONE',#77,.NOT_KNOWN.);
#149=CARTESIAN_POINT('',(0.0,0.0,0.0));
#150=DIRECTION('',(0.0,0.0,1.0));
#151=DIRECTION('',(1.0,0.0,0.0));
#152= (NAMED_UNIT(#85)LENGTH_UNIT()SI_UNIT(.MILLI.,.METRE.));
#153=SURFACE_SIDE_STYLE('',(#207));
#154=EDGE_LOOP('',(#208,#209,#210,#211,#212,#213));
#155=AXIS2_PLACEMENT_3D('',#214,#215,#216);
#156=SURFACE_SIDE_STYLE('',(#217));
#157=EDGE_LOOP('',(#218,#219,#220,#221));
#158=AXIS2_PLACEMENT_3D('',#222,#223,#224);
#159=SURFACE_SIDE_STYLE('',(#225));
#160=EDGE_LOOP('',(#226,#227,#228,#229));
#161=AXIS2_PLACEMENT_3D('',#230,#231,#232);
#162=SURFACE_SIDE_STYLE('',(#233));
#163=EDGE_LOOP('',(#234,#235));
#164=AXIS2_PLACEMENT_3D('',#236,#237,#238);
#165=SURFACE_SIDE_STYLE('',(#239));
#166=EDGE_LOOP('',(#240,#241));
#167=EDGE_LOOP('',(#242,#243));
#168=AXIS2_PLACEMENT_3D('',#244,#245,#246);
#169=SURFACE_SIDE_STYLE('',(#247));
#170=EDGE_LOOP('',(#248,#249,#250,#251,#252,#253));
#171=AXIS2_PLACEMENT_3D('',#254,#255,#256);
#172=SURFACE_SIDE_STYLE('',(#257));
#173=EDGE_LOOP('',(#258,#259,#260,#261,#262));
#174=AXIS2_PLACEMENT_3D('',#263,#264,#265);
#175=SURFACE_SIDE_STYLE('',(#266));
#176=EDGE_LOOP('',(#267,#268,#269,#270,#271,#272,#273,#274,#275,#276));
#177=AXIS2_PLACEMENT_3D('',#277,#278,#279);
#178=SURFACE_SIDE_STYLE('',(#280));
#179=EDGE_LOOP('',(#281,#282,#283,#284));
#180=AXIS2_PLACEMENT_3D('',#285,#286,#287);
#181=SURFACE_SIDE_STYLE('',(#288));
#182=EDGE_LOOP('',(#289,#290,#291,#292,#293,#294,#295,#296,#297,#298));
#183=AXIS2_PLACEMENT_3D('',#299,#300,#301);
#184=SURFACE_SIDE_STYLE('',(#302));
#185=EDGE_LOOP('',(#303,#304,#305,#306));
#186=AXIS2_PLACEMENT_3D('',#307,#308,#309);
#187=SURFACE_SIDE_STYLE('',(#310));
#188=EDGE_LOOP('',(#311,#312,#313,#314));
#189=AXIS2_PLACEMENT_3D('',#315,#316,#317);
#190=SURFACE_SIDE_STYLE('',(#318));
#191=EDGE_LOOP('',(#319,#320,#321,#322));
#192=AXIS2_PLACEMENT_3D('',#323,#324,#325);
#193=SURFACE_SIDE_STYLE('',(#326));
#194=EDGE_LOOP('',(#327,#328,#329,#330));
#195=AXIS2_PLACEMENT_3D('',#331,#332,#333);
#196=SURFACE_SIDE_STYLE('',(#334));
#197=EDGE_LOOP('',(#335,#336,#337,#338));
#198=AXIS2_PLACEMENT_3D('',#339,#340,#341);
#199=SURFACE_SIDE_STYLE('',(#342));
#200=EDGE_LOOP('',(#343,#344,#345,#346));
#201=AXIS2_PLACEMENT_3D('',#347,#348,#349);
#202=SURFACE_SIDE_STYLE('',(#350));
#203=EDGE_LOOP('',(#351,#352,#353,#354,#355));
#204=AXIS2_PLACEMENT_3D('',#356,#357,#358);
#205=SURFACE_SIDE_STYLE('',(#359));
#207=SURFACE_STYLE_FILL_AREA(#360);
#208=ORIENTED_EDGE('',*,*,#361,.F.);
#209=ORIENTED_EDGE('',*,*,#362,.F.);
#210=ORIENTED_EDGE('',*,*,#363,.F.);
#211=ORIENTED_EDGE('',*,*,#364,.T.);
#212=ORIENTED_EDGE('',*,*,#365,.T.);
#213=ORIENTED_EDGE('',*,*,#366,.T.);
#214=CARTESIAN_POINT('',(0.0,-4.589691963978,0.0));
#215=DIRECTION('',(-0.0,-1.0,-0.0));
#216=DIRECTION('',(0.0,0.0,-1.0));
#217=SURFACE_STYLE_FILL_AREA(#367);
#218=ORIENTED_EDGE('',*,*,#368,.F.);
#219=ORIENTED_EDGE('',*,*,#369,.F.);
#220=ORIENTED_EDGE('',*,*,#370,.F.);
#221=ORIENTED_EDGE('',*,*,#371,.F.);
#222=CARTESIAN_POINT('',(0.0,42.0,0.0));
#223=DIRECTION('',(0.0,1.0,0.0));
#224=DIRECTION('',(-1.0,0.0,0.0));
#225=SURFACE_STYLE_FILL_AREA(#372);
#226=ORIENTED_EDGE('',*,*,#368,.T.);
#227=ORIENTED_EDGE('',*,*,#373,.F.);
#228=ORIENTED_EDGE('',*,*,#370,.T.);
#229=ORIENTED_EDGE('',*,*,#374,.F.);
#230=CARTESIAN_POINT('',(0.0,42.0,0.0));
#231=DIRECTION('',(0.0,1.0,0.0));
#232=DIRECTION('',(-1.0,0.0,0.0));
#233=SURFACE_STYLE_FILL_AREA(#375);
#234=ORIENTED_EDGE('',*,*,#374,.T.);
#235=ORIENTED_EDGE('',*,*,#369,.T.);
#236=CARTESIAN_POINT('',(0.0,40.0,0.0));
#237=DIRECTION('',(0.0,-1.0,0.0));
#238=DIRECTION('',(0.0,0.0,1.0));
#239=SURFACE_STYLE_FILL_AREA(#376);
#240=ORIENTED_EDGE('',*,*,#377,.T.);
#241=ORIENTED_EDGE('',*,*,#362,.T.);
#242=ORIENTED_EDGE('',*,*,#371,.T.);
#243=ORIENTED_EDGE('',*,*,#373,.T.);
#244=CARTESIAN_POINT('',(12.5,0.0,-13.2));
#245=DIRECTION('',(0.0,1.0,0.0));
#246=DIRECTION('',(-1.0,0.0,0.0));
#247=SURFACE_STYLE_FILL_AREA(#378);
#248=ORIENTED_EDGE('',*,*,#361,.T.);
#249=ORIENTED_EDGE('',*,*,#379,.T.);
#250=ORIENTED_EDGE('',*,*,#380,.T.);
#251=ORIENTED_EDGE('',*,*,#381,.T.);
#252=ORIENTED_EDGE('',*,*,#363,.T.);
#253=ORIENTED_EDGE('',*,*,#377,.F.);
#254=CARTESIAN_POINT('',(0.0,-4.589691963978,0.0));
#255=DIRECTION('',(-0.0,-1.0,-0.0));
#256=DIRECTION('',(0.0,0.0,-1.0));
#257=SURFACE_STYLE_FILL_AREA(#382);
#258=ORIENTED_EDGE('',*,*,#379,.F.);
#259=ORIENTED_EDGE('',*,*,#366,.F.);
#260=ORIENTED_EDGE('',*,*,#383,.F.);
#261=ORIENTED_EDGE('',*,*,#384,.T.);
#262=ORIENTED_EDGE('',*,*,#385,.F.);
#263=CARTESIAN_POINT('',(0.0,0.0,-13.2));
#264=DIRECTION('',(0.0,-0.0,1.0));
#265=DIRECTION('',(0.0,1.0,0.0));
#266=SURFACE_STYLE_FILL_AREA(#386);
#267=ORIENTED_EDGE('',*,*,#387,.F.);
#268=ORIENTED_EDGE('',*,*,#388,.T.);
#269=ORIENTED_EDGE('',*,*,#389,.T.);
#270=ORIENTED_EDGE('',*,*,#390,.T.);
#271=ORIENTED_EDGE('',*,*,#391,.F.);
#272=ORIENTED_EDGE('',*,*,#380,.F.);
#273=ORIENTED_EDGE('',*,*,#385,.T.);
#274=ORIENTED_EDGE('',*,*,#392,.T.);
#275=ORIENTED_EDGE('',*,*,#393,.T.);
#276=ORIENTED_EDGE('',*,*,#394,.T.);
#277=CARTESIAN_POINT('',(-12.5,0.0,-13.2));
#278=DIRECTION('',(-1.0,0.0,0.0));
#279=DIRECTION('',(0.0,1.0,0.0));
#280=SURFACE_STYLE_FILL_AREA(#395);
#281=ORIENTED_EDGE('',*,*,#396,.T.);
#282=ORIENTED_EDGE('',*,*,#397,.T.);
#283=ORIENTED_EDGE('',*,*,#387,.T.);
#284=ORIENTED_EDGE('',*,*,#398,.F.);
#285=CARTESIAN_POINT('',(12.5,-23.0,1.5));
#286=DIRECTION('',(0.0,1.0,0.0));
#287=DIRECTION('',(-1.0,0.0,0.0));
#288=SURFACE_STYLE_FILL_AREA(#399);
#289=ORIENTED_EDGE('',*,*,#396,.F.);
#290=ORIENTED_EDGE('',*,*,#400,.F.);
#291=ORIENTED_EDGE('',*,*,#401,.F.);
#292=ORIENTED_EDGE('',*,*,#402,.T.);
#293=ORIENTED_EDGE('',*,*,#383,.T.);
#294=ORIENTED_EDGE('',*,*,#365,.F.);
#295=ORIENTED_EDGE('',*,*,#403,.F.);
#296=ORIENTED_EDGE('',*,*,#404,.T.);
#297=ORIENTED_EDGE('',*,*,#405,.F.);
#298=ORIENTED_EDGE('',*,*,#406,.F.);
#299=CARTESIAN_POINT('',(12.5,-30.0,-13.2));
#300=DIRECTION('',(1.0,0.0,0.0));
#301=DIRECTION('',(0.0,0.0,-1.0));
#302=SURFACE_STYLE_FILL_AREA(#407);
#303=ORIENTED_EDGE('',*,*,#406,.T.);
#304=ORIENTED_EDGE('',*,*,#408,.F.);
#305=ORIENTED_EDGE('',*,*,#388,.F.);
#306=ORIENTED_EDGE('',*,*,#397,.F.);
#307=CARTESIAN_POINT('',(12.5,-23.0,9.0));
#308=DIRECTION('',(0.0,-0.173648177666902,0.984807753012213));
#309=DIRECTION('',(-1.0,0.0,0.0));
#310=SURFACE_STYLE_FILL_AREA(#409);
#311=ORIENTED_EDGE('',*,*,#410,.F.);
#312=ORIENTED_EDGE('',*,*,#393,.F.);
#313=ORIENTED_EDGE('',*,*,#411,.F.);
#314=ORIENTED_EDGE('',*,*,#401,.T.);
#315=CARTESIAN_POINT('',(-12.5,-30.0,-13.2));
#316=DIRECTION('',(0.0,-1.0,0.0));
#317=DIRECTION('',(0.0,0.0,1.0));
#318=SURFACE_STYLE_FILL_AREA(#412);
#319=ORIENTED_EDGE('',*,*,#408,.T.);
#320=ORIENTED_EDGE('',*,*,#405,.T.);
#321=ORIENTED_EDGE('',*,*,#413,.F.);
#322=ORIENTED_EDGE('',*,*,#389,.F.);
#323=CARTESIAN_POINT('',(-12.5,-30.0,-13.2));
#324=DIRECTION('',(0.0,-1.0,0.0));
#325=DIRECTION('',(0.0,0.0,1.0));
#326=SURFACE_STYLE_FILL_AREA(#414);
#327=ORIENTED_EDGE('',*,*,#400,.T.);
#328=ORIENTED_EDGE('',*,*,#398,.T.);
#329=ORIENTED_EDGE('',*,*,#394,.F.);
#330=ORIENTED_EDGE('',*,*,#410,.T.);
#331=CARTESIAN_POINT('',(12.5,-30.0,-7.765711135041));
#332=DIRECTION('',(-0.0,-0.173648177666902,-0.984807753012213));
#333=DIRECTION('',(0.0,-0.984807753012213,0.173648177666902));
#334=SURFACE_STYLE_FILL_AREA(#415);
#335=ORIENTED_EDGE('',*,*,#392,.F.);
#336=ORIENTED_EDGE('',*,*,#384,.F.);
#337=ORIENTED_EDGE('',*,*,#402,.F.);
#338=ORIENTED_EDGE('',*,*,#411,.T.);
#339=CARTESIAN_POINT('',(12.661184,-26.0,-9.2));
#340=DIRECTION('',(1.0,-0.0,0.0));
#341=DIRECTION('',(0.0,0.0,-1.0));
#342=SURFACE_STYLE_FILL_AREA(#416);
#343=ORIENTED_EDGE('',*,*,#404,.F.);
#344=ORIENTED_EDGE('',*,*,#417,.F.);
#345=ORIENTED_EDGE('',*,*,#390,.F.);
#346=ORIENTED_EDGE('',*,*,#413,.T.);
#347=CARTESIAN_POINT('',(-12.647852,-26.0,9.2));
#348=DIRECTION('',(-1.0,0.0,0.0));
#349=DIRECTION('',(0.0,0.0,1.0));
#350=SURFACE_STYLE_FILL_AREA(#418);
#351=ORIENTED_EDGE('',*,*,#381,.F.);
#352=ORIENTED_EDGE('',*,*,#391,.T.);
#353=ORIENTED_EDGE('',*,*,#417,.T.);
#354=ORIENTED_EDGE('',*,*,#403,.T.);
#355=ORIENTED_EDGE('',*,*,#364,.F.);
#356=CARTESIAN_POINT('',(0.0,0.0,13.2));
#357=DIRECTION('',(0.0,-0.0,1.0));
#358=DIRECTION('',(0.0,1.0,0.0));
#359=SURFACE_STYLE_FILL_AREA(#419);
#360=FILL_AREA_STYLE('',(#420));
#361=EDGE_CURVE('',#421,#422,#423,.T.);
#362=EDGE_CURVE('',#424,#421,#425,.T.);
#363=EDGE_CURVE('',#426,#424,#427,.T.);
#364=EDGE_CURVE('',#426,#428,#429,.T.);
#365=EDGE_CURVE('',#428,#430,#431,.T.);
#366=EDGE_CURVE('',#430,#422,#432,.T.);
#367=FILL_AREA_STYLE('',(#433));
#368=EDGE_CURVE('',#434,#435,#436,.T.);
#369=EDGE_CURVE('',#437,#434,#438,.T.);
#370=EDGE_CURVE('',#439,#437,#440,.T.);
#371=EDGE_CURVE('',#435,#439,#441,.T.);
#372=FILL_AREA_STYLE('',(#442));
#373=EDGE_CURVE('',#439,#435,#443,.T.);
#374=EDGE_CURVE('',#434,#437,#444,.T.);
#375=FILL_AREA_STYLE('',(#445));
#376=FILL_AREA_STYLE('',(#446));
#377=EDGE_CURVE('',#421,#424,#447,.T.);
#378=FILL_AREA_STYLE('',(#448));
#379=EDGE_CURVE('',#422,#449,#450,.T.);
#380=EDGE_CURVE('',#449,#451,#452,.T.);
#381=EDGE_CURVE('',#451,#426,#453,.T.);
#382=FILL_AREA_STYLE('',(#454));
#383=EDGE_CURVE('',#455,#430,#456,.T.);
#384=EDGE_CURVE('',#455,#457,#458,.T.);
#385=EDGE_CURVE('',#449,#457,#459,.T.);
#386=FILL_AREA_STYLE('',(#460));
#387=EDGE_CURVE('',#461,#462,#463,.T.);
#388=EDGE_CURVE('',#461,#464,#465,.T.);
#389=EDGE_CURVE('',#464,#466,#467,.T.);
#390=EDGE_CURVE('',#466,#468,#469,.T.);
#391=EDGE_CURVE('',#451,#468,#470,.T.);
#392=EDGE_CURVE('',#457,#471,#472,.T.);
#393=EDGE_CURVE('',#471,#473,#474,.T.);
#394=EDGE_CURVE('',#473,#462,#475,.T.);
#395=FILL_AREA_STYLE('',(#476));
#396=EDGE_CURVE('',#477,#478,#479,.T.);
#397=EDGE_CURVE('',#478,#461,#480,.T.);
#398=EDGE_CURVE('',#477,#462,#481,.T.);
#399=FILL_AREA_STYLE('',(#482));
#400=EDGE_CURVE('',#483,#477,#484,.T.);
#401=EDGE_CURVE('',#485,#483,#486,.T.);
#402=EDGE_CURVE('',#485,#455,#487,.T.);
#403=EDGE_CURVE('',#488,#428,#489,.T.);
#404=EDGE_CURVE('',#488,#490,#491,.T.);
#405=EDGE_CURVE('',#492,#490,#493,.T.);
#406=EDGE_CURVE('',#478,#492,#494,.T.);
#407=FILL_AREA_STYLE('',(#495));
#408=EDGE_CURVE('',#464,#492,#496,.T.);
#409=FILL_AREA_STYLE('',(#497));
#410=EDGE_CURVE('',#473,#483,#498,.T.);
#411=EDGE_CURVE('',#485,#471,#499,.T.);
#412=FILL_AREA_STYLE('',(#500));
#413=EDGE_CURVE('',#466,#490,#501,.T.);
#414=FILL_AREA_STYLE('',(#502));
#415=FILL_AREA_STYLE('',(#503));
#416=FILL_AREA_STYLE('',(#504));
#417=EDGE_CURVE('',#468,#488,#505,.T.);
#418=FILL_AREA_STYLE('',(#506));
#419=FILL_AREA_STYLE('',(#507));
#420=FILL_AREA_STYLE_COLOUR('',#508);
#421=VERTEX_POINT('',#509);
#422=VERTEX_POINT('',#510);
#423=LINE('',#511,#512);
#424=VERTEX_POINT('',#513);
#425=CIRCLE('',#514,9.0);
#426=VERTEX_POINT('',#515);
#427=LINE('',#516,#517);
#428=VERTEX_POINT('',#518);
#429=(B_SPLINE_CURVE(2,(#520,#521,#522),.UNSPECIFIED.,.F.,.F.)B_SPLINE_CURVE_WITH_KNOTS((3,3),(-4.05166632387247,-1.6807599741289),.UNSPECIFIED.)RATIONAL_B_SPLINE_CURVE((1.86363636363644,1.86363636363644,1.56790841123461))BOUNDED_CURVE()REPRESENTATION_ITEM('')GEOMETRIC_REPRESENTATION_ITEM()CURVE());
#430=VERTEX_POINT('',#529);
#431=(B_SPLINE_CURVE(2,(#531,#532,#533),.UNSPECIFIED.,.F.,.F.)B_SPLINE_CURVE_WITH_KNOTS((3,3),(-7.47879565101344,-1.902035868634),.UNSPECIFIED.)RATIONAL_B_SPLINE_CURVE((1.71124687912054,2.48875312087962,1.71124687912054))BOUNDED_CURVE()REPRESENTATION_ITEM('')GEOMETRIC_REPRESENTATION_ITEM()CURVE());
#432=(B_SPLINE_CURVE(2,(#541,#542,#543),.UNSPECIFIED.,.F.,.F.)B_SPLINE_CURVE_WITH_KNOTS((3,3),(1.68075997412896,4.05166632387249),.UNSPECIFIED.)RATIONAL_B_SPLINE_CURVE((1.56790841123461,1.86363636363644,1.86363636363644))BOUNDED_CURVE()REPRESENTATION_ITEM('')GEOMETRIC_REPRESENTATION_ITEM()CURVE());
#433=FILL_AREA_STYLE_COLOUR('',#550);
#434=VERTEX_POINT('',#551);
#435=VERTEX_POINT('',#552);
#436=LINE('',#553,#554);
#437=VERTEX_POINT('',#555);
#438=CIRCLE('',#556,7.15);
#439=VERTEX_POINT('',#557);
#440=LINE('',#558,#559);
#441=CIRCLE('',#560,7.15);
#442=FILL_AREA_STYLE_COLOUR('',#561);
#443=CIRCLE('',#562,7.15);
#444=CIRCLE('',#563,7.15);
#445=FILL_AREA_STYLE_COLOUR('',#564);
#446=FILL_AREA_STYLE_COLOUR('',#565);
#447=CIRCLE('',#566,9.0);
#448=FILL_AREA_STYLE_COLOUR('',#567);
#449=VERTEX_POINT('',#568);
#450=(B_SPLINE_CURVE(2,(#570,#571,#572),.UNSPECIFIED.,.F.,.F.)B_SPLINE_CURVE_WITH_KNOTS((3,3),(-4.05166632387247,-1.6807599741289),.UNSPECIFIED.)RATIONAL_B_SPLINE_CURVE((1.86363636363644,1.86363636363644,1.56790841123461))BOUNDED_CURVE()REPRESENTATION_ITEM('')GEOMETRIC_REPRESENTATION_ITEM()CURVE());
#451=VERTEX_POINT('',#579);
#452=(B_SPLINE_CURVE(2,(#581,#582,#583),.UNSPECIFIED.,.F.,.F.)B_SPLINE_CURVE_WITH_KNOTS((3,3),(1.902035868634,7.47879565101344),.UNSPECIFIED.)RATIONAL_B_SPLINE_CURVE((1.71124687912054,2.48875312087962,1.71124687912054))BOUNDED_CURVE()REPRESENTATION_ITEM('')GEOMETRIC_REPRESENTATION_ITEM()CURVE());
#453=(B_SPLINE_CURVE(2,(#591,#592,#593),.UNSPECIFIED.,.F.,.F.)B_SPLINE_CURVE_WITH_KNOTS((3,3),(1.68075997412896,4.05166632387249),.UNSPECIFIED.)RATIONAL_B_SPLINE_CURVE((1.56790841123461,1.86363636363644,1.86363636363644))BOUNDED_CURVE()REPRESENTATION_ITEM('')GEOMETRIC_REPRESENTATION_ITEM()CURVE());
#454=FILL_AREA_STYLE_COLOUR('',#600);
#455=VERTEX_POINT('',#601);
#456=LINE('',#602,#603);
#457=VERTEX_POINT('',#604);
#458=LINE('',#605,#606);
#459=LINE('',#607,#608);
#460=FILL_AREA_STYLE_COLOUR('',#609);
#461=VERTEX_POINT('',#610);
#462=VERTEX_POINT('',#611);
#463=LINE('',#612,#613);
#464=VERTEX_POINT('',#614);
#465=LINE('',#615,#616);
#466=VERTEX_POINT('',#617);
#467=LINE('',#618,#619);
#468=VERTEX_POINT('',#620);
#469=CIRCLE('',#621,4.0);
#470=LINE('',#622,#623);
#471=VERTEX_POINT('',#624);
#472=CIRCLE('',#625,4.0);
#473=VERTEX_POINT('',#626);
#474=LINE('',#627,#628);
#475=LINE('',#629,#630);
#476=FILL_AREA_STYLE_COLOUR('',#631);
#477=VERTEX_POINT('',#632);
#478=VERTEX_POINT('',#633);
#479=LINE('',#634,#635);
#480=LINE('',#636,#637);
#481=LINE('',#638,#639);
#482=FILL_AREA_STYLE_COLOUR('',#640);
#483=VERTEX_POINT('',#641);
#484=LINE('',#642,#643);
#485=VERTEX_POINT('',#644);
#486=LINE('',#645,#646);
#487=CIRCLE('',#647,4.0);
#488=VERTEX_POINT('',#648);
#489=LINE('',#649,#650);
#490=VERTEX_POINT('',#651);
#491=CIRCLE('',#652,4.0);
#492=VERTEX_POINT('',#653);
#493=LINE('',#654,#655);
#494=LINE('',#656,#657);
#495=FILL_AREA_STYLE_COLOUR('',#658);
#496=LINE('',#659,#660);
#497=FILL_AREA_STYLE_COLOUR('',#661);
#498=LINE('',#662,#663);
#499=LINE('',#664,#665);
#500=FILL_AREA_STYLE_COLOUR('',#666);
#501=LINE('',#667,#668);
#502=FILL_AREA_STYLE_COLOUR('',#669);
#503=FILL_AREA_STYLE_COLOUR('',#670);
#504=FILL_AREA_STYLE_COLOUR('',#671);
#505=LINE('',#672,#673);
#506=FILL_AREA_STYLE_COLOUR('',#674);
#507=FILL_AREA_STYLE_COLOUR('',#675);
#508=COLOUR_RGB('',0.749019622802734,0.749019622802734,0.749019622802734);
#509=CARTESIAN_POINT('',(0.0,0.0,-9.0));
#510=CARTESIAN_POINT('',(0.0,-4.2,-13.2));
#511=CARTESIAN_POINT('',(1.66425727650866E-015,-4.589691963978,-13.58969196398));
#512=VECTOR('',#676,1.0);
#513=CARTESIAN_POINT('',(-1.10218211923262E-015,0.0,9.0));
#514=AXIS2_PLACEMENT_3D('',#677,#678,#679);
#515=CARTESIAN_POINT('',(0.0,-4.2,13.2));
#516=CARTESIAN_POINT('',(-1.66425727650866E-015,-4.589691963978,13.58969196398));
#517=VECTOR('',#680,1.0);
#518=CARTESIAN_POINT('',(12.5,-9.179383927955,13.2));
#520=CARTESIAN_POINT('',(1.90633416911239E-014,-4.19999999999799,13.2));
#521=CARTESIAN_POINT('',(5.25822942792104,-4.199999999998,13.2));
#522=CARTESIAN_POINT('',(12.5000000000007,-9.17938392795381,13.2));
#529=CARTESIAN_POINT('',(12.5,-9.179383927955,-13.2));
#531=CARTESIAN_POINT('',(12.5,-9.17938392792268,13.1999999999578));
#532=CARTESIAN_POINT('',(12.5,0.405099280622287,4.44089209850063E-016));
#533=CARTESIAN_POINT('',(12.5,-9.17938392792269,-13.1999999999578));
#541=CARTESIAN_POINT('',(12.5000000000007,-9.17938392795381,-13.2));
#542=CARTESIAN_POINT('',(5.25822942792104,-4.199999999998,-13.2));
#543=CARTESIAN_POINT('',(1.90633416911239E-014,-4.19999999999799,-13.2));
#550=COLOUR_RGB('',0.749019622802734,0.749019622802734,0.749019622802734);
#551=CARTESIAN_POINT('',(-7.15,40.0,0.0));
#552=CARTESIAN_POINT('',(-7.15,0.0,0.0));
#553=CARTESIAN_POINT('',(-7.15,20.0,-8.75622461390357E-016));
#554=VECTOR('',#681,1.0);
#555=CARTESIAN_POINT('',(7.15,40.0,8.75622461390358E-016));
#556=AXIS2_PLACEMENT_3D('',#682,#683,#684);
#557=CARTESIAN_POINT('',(7.14999999999999,0.0,8.75622461390356E-016));
#558=CARTESIAN_POINT('',(7.15,20.0,8.75622461390358E-016));
#559=VECTOR('',#685,1.0);
#560=AXIS2_PLACEMENT_3D('',#686,#687,#688);
#561=COLOUR_RGB('',0.749019622802734,0.749019622802734,0.749019622802734);
#562=AXIS2_PLACEMENT_3D('',#689,#690,#691);
#563=AXIS2_PLACEMENT_3D('',#692,#693,#694);
#564=COLOUR_RGB('',0.749019622802734,0.749019622802734,0.749019622802734);
#565=COLOUR_RGB('',0.749019622802734,0.749019622802734,0.749019622802734);
#566=AXIS2_PLACEMENT_3D('',#695,#696,#697);
#567=COLOUR_RGB('',0.749019622802734,0.749019622802734,0.749019622802734);
#568=CARTESIAN_POINT('',(-12.5,-9.179383927955,-13.2));
#570=CARTESIAN_POINT('',(-1.90633416911239E-014,-4.19999999999799,-13.2));
#571=CARTESIAN_POINT('',(-5.25822942792104,-4.199999999998,-13.2));
#572=CARTESIAN_POINT('',(-12.5000000000007,-9.17938392795381,-13.2));
#579=CARTESIAN_POINT('',(-12.5,-9.179383927955,13.2));
#581=CARTESIAN_POINT('',(-12.5,-9.17938392792269,-13.1999999999578));
#582=CARTESIAN_POINT('',(-12.5,0.405099280622287,4.44089209850063E-016));
#583=CARTESIAN_POINT('',(-12.5,-9.17938392792268,13.1999999999578));
#591=CARTESIAN_POINT('',(-12.5000000000007,-9.17938392795381,13.2));
#592=CARTESIAN_POINT('',(-5.25822942792104,-4.199999999998,13.2));
#593=CARTESIAN_POINT('',(-1.90633416911239E-014,-4.19999999999799,13.2));
#600=COLOUR_RGB('',0.749019622802734,0.749019622802734,0.749019622802734);
#601=CARTESIAN_POINT('',(12.5,-26.0,-13.2));
#602=CARTESIAN_POINT('',(12.5,-26.0,-13.2));
#603=VECTOR('',#698,16.820616072045);
#604=CARTESIAN_POINT('',(-12.5,-26.0,-13.2));
#605=CARTESIAN_POINT('',(12.5,-26.0,-13.2));
#606=VECTOR('',#699,25.0);
#607=CARTESIAN_POINT('',(-12.5,-9.179383927955,-13.2));
#608=VECTOR('',#700,16.820616072045);
#609=COLOUR_RGB('',0.749019622802734,0.749019622802734,0.749019622802734);
#610=CARTESIAN_POINT('',(-12.5,-23.0,9.0));
#611=CARTESIAN_POINT('',(-12.5,-23.0,-9.0));
#612=CARTESIAN_POINT('',(-12.5,-23.0,9.0));
#613=VECTOR('',#701,18.0);
#614=CARTESIAN_POINT('',(-12.5,-30.0,7.765711135041));
#615=CARTESIAN_POINT('',(-12.5,-23.0,9.0));
#616=VECTOR('',#702,7.10798628320017);
#617=CARTESIAN_POINT('',(-12.5,-30.0,9.2));
#618=CARTESIAN_POINT('',(-12.5,-30.0,7.765711135041));
#619=VECTOR('',#703,1.434288864959);
#620=CARTESIAN_POINT('',(-12.5,-26.0,13.2));
#621=AXIS2_PLACEMENT_3D('',#704,#705,#706);
#622=CARTESIAN_POINT('',(-12.5,-9.179383927955,13.2));
#623=VECTOR('',#707,16.820616072045);
#624=CARTESIAN_POINT('',(-12.5,-30.0,-9.2));
#625=AXIS2_PLACEMENT_3D('',#708,#709,#710);
#626=CARTESIAN_POINT('',(-12.5,-30.0,-7.765711135041));
#627=CARTESIAN_POINT('',(-12.5,-30.0,-9.2));
#628=VECTOR('',#711,1.434288864959);
#629=CARTESIAN_POINT('',(-12.5,-30.0,-7.765711135041));
#630=VECTOR('',#712,7.10798628320017);
#631=COLOUR_RGB('',0.749019622802734,0.749019622802734,0.749019622802734);
#632=CARTESIAN_POINT('',(12.5,-23.0,-9.0));
#633=CARTESIAN_POINT('',(12.5,-23.0,9.0));
#634=CARTESIAN_POINT('',(12.5,-23.0,-9.0));
#635=VECTOR('',#713,18.0);
#636=CARTESIAN_POINT('',(12.5,-23.0,9.0));
#637=VECTOR('',#714,25.0);
#638=CARTESIAN_POINT('',(12.5,-23.0,-9.0));
#639=VECTOR('',#715,25.0);
#640=COLOUR_RGB('',0.749019622802734,0.749019622802734,0.749019622802734);
#641=CARTESIAN_POINT('',(12.5,-30.0,-7.765711135041));
#642=CARTESIAN_POINT('',(12.5,-30.0,-7.765711135041));
#643=VECTOR('',#716,7.10798628320017);
#644=CARTESIAN_POINT('',(12.5,-30.0,-9.2));
#645=CARTESIAN_POINT('',(12.5,-30.0,-9.2));
#646=VECTOR('',#717,1.434288864959);
#647=AXIS2_PLACEMENT_3D('',#718,#719,#720);
#648=CARTESIAN_POINT('',(12.5,-26.0,13.2));
#649=CARTESIAN_POINT('',(12.5,-26.0,13.2));
#650=VECTOR('',#721,16.820616072045);
#651=CARTESIAN_POINT('',(12.5,-30.0,9.2));
#652=AXIS2_PLACEMENT_3D('',#722,#723,#724);
#653=CARTESIAN_POINT('',(12.5,-30.0,7.765711135041));
#654=CARTESIAN_POINT('',(12.5,-30.0,7.765711135041));
#655=VECTOR('',#725,1.434288864959);
#656=CARTESIAN_POINT('',(12.5,-23.0,9.0));
#657=VECTOR('',#726,7.10798628320017);
#658=COLOUR_RGB('',0.749019622802734,0.749019622802734,0.749019622802734);
#659=CARTESIAN_POINT('',(-12.5,-30.0,7.765711135041));
#660=VECTOR('',#727,25.0);
#661=COLOUR_RGB('',0.749019622802734,0.749019622802734,0.749019622802734);
#662=CARTESIAN_POINT('',(-12.5,-30.0,-7.765711135041));
#663=VECTOR('',#728,25.0);
#664=CARTESIAN_POINT('',(12.5,-30.0,-9.2));
#665=VECTOR('',#729,25.0);
#666=COLOUR_RGB('',0.749019622802734,0.749019622802734,0.749019622802734);
#667=CARTESIAN_POINT('',(-12.5,-30.0,9.2));
#668=VECTOR('',#730,25.0);
#669=COLOUR_RGB('',0.749019622802734,0.749019622802734,0.749019622802734);
#670=COLOUR_RGB('',0.749019622802734,0.749019622802734,0.749019622802734);
#671=COLOUR_RGB('',0.749019622802734,0.749019622802734,0.749019622802734);
#672=CARTESIAN_POINT('',(-12.5,-26.0,13.2));
#673=VECTOR('',#731,25.0);
#674=COLOUR_RGB('',0.749019622802734,0.749019622802734,0.749019622802734);
#675=COLOUR_RGB('',0.749019622802734,0.749019622802734,0.749019622802734);
#676=DIRECTION('',(8.65956056237703E-017,-0.707106781184743,-0.707106781188352));
#677=CARTESIAN_POINT('',(0.0,0.0,0.0));
#678=DIRECTION('',(0.0,1.0,0.0));
#679=DIRECTION('',(0.0,0.0,-1.0));
#680=DIRECTION('',(8.65956056237703E-017,0.707106781184743,-0.707106781188352));
#681=DIRECTION('',(-0.0,-1.0,-0.0));
#682=CARTESIAN_POINT('',(0.0,40.0,0.0));
#683=DIRECTION('',(0.0,1.0,0.0));
#684=DIRECTION('',(-1.0,0.0,0.0));
#685=DIRECTION('',(0.0,1.0,0.0));
#686=CARTESIAN_POINT('',(-1.224646799147E-014,0.0,0.0));
#687=DIRECTION('',(0.0,-1.0,0.0));
#688=DIRECTION('',(-1.0,0.0,0.0));
#689=CARTESIAN_POINT('',(-1.224646799147E-014,0.0,0.0));
#690=DIRECTION('',(0.0,-1.0,0.0));
#691=DIRECTION('',(-1.0,0.0,0.0));
#692=CARTESIAN_POINT('',(0.0,40.0,0.0));
#693=DIRECTION('',(0.0,1.0,0.0));
#694=DIRECTION('',(-1.0,0.0,0.0));
#695=CARTESIAN_POINT('',(0.0,0.0,0.0));
#696=DIRECTION('',(0.0,1.0,0.0));
#697=DIRECTION('',(0.0,0.0,-1.0));
#698=DIRECTION('',(0.0,1.0,0.0));
#699=DIRECTION('',(-1.0,0.0,0.0));
#700=DIRECTION('',(0.0,-1.0,0.0));
#701=DIRECTION('',(0.0,0.0,-1.0));
#702=DIRECTION('',(-0.0,-0.984807753012213,-0.173648177666902));
#703=DIRECTION('',(0.0,0.0,1.0));
#704=CARTESIAN_POINT('',(-12.5,-26.0,9.2));
#705=DIRECTION('',(-1.0,0.0,0.0));
#706=DIRECTION('',(0.0,-1.0,0.0));
#707=DIRECTION('',(0.0,-1.0,0.0));
#708=CARTESIAN_POINT('',(-12.5,-26.0,-9.2));
#709=DIRECTION('',(-1.0,0.0,0.0));
#710=DIRECTION('',(0.0,0.0,-1.0));
#711=DIRECTION('',(0.0,0.0,1.0));
#712=DIRECTION('',(0.0,0.984807753012213,-0.173648177666902));
#713=DIRECTION('',(0.0,0.0,1.0));
#714=DIRECTION('',(-1.0,0.0,0.0));
#715=DIRECTION('',(-1.0,0.0,0.0));
#716=DIRECTION('',(0.0,0.984807753012213,-0.173648177666902));
#717=DIRECTION('',(0.0,0.0,1.0));
#718=CARTESIAN_POINT('',(12.5,-26.0,-9.2));
#719=DIRECTION('',(1.0,0.0,0.0));
#720=DIRECTION('',(0.0,-1.0,0.0));
#721=DIRECTION('',(0.0,1.0,0.0));
#722=CARTESIAN_POINT('',(12.5,-26.0,9.2));
#723=DIRECTION('',(1.0,0.0,-0.0));
#724=DIRECTION('',(0.0,0.0,1.0));
#725=DIRECTION('',(0.0,0.0,1.0));
#726=DIRECTION('',(-0.0,-0.984807753012213,-0.173648177666902));
#727=DIRECTION('',(1.0,0.0,0.0));
#728=DIRECTION('',(1.0,0.0,0.0));
#729=DIRECTION('',(-1.0,0.0,0.0));
#730=DIRECTION('',(1.0,0.0,0.0));
#731=DIRECTION('',(1.0,0.0,0.0));
ENDSEC;
END-ISO-10303-21;
