ISO-10303-21;
HEADER;
FILE_DESCRIPTION(('STEP AP214'),'1');
FILE_NAME('cctmp_E140686B-4385-4131-915F-495D730B305E_2020_8_19_11_18_39_748..stp','2020-08-19T09:18:39',('Bosch Rexroth AG'),('CADClick - www.CADClick.com'),'Spatial InterOp 3D',' ','unknown authorization - (Healing Option Enabled)');
FILE_SCHEMA(('AUTOMOTIVE_DESIGN'));
ENDSEC;
DATA;
#1=MECHANICAL_DESIGN_GEOMETRIC_PRESENTATION_REPRESENTATION(' ',(#10,#11,#12,#13,#14,#15,#16,#17,#18,#19,#20,#21,#22,#23,#24,#25,#26),#6);
#2=PRODUCT_DEFINITION_CONTEXT('',#27,'design');
#3=APPLICATION_PROTOCOL_DEFINITION('INTERNATIONAL STANDARD','automotive_design',1994,#27);
#4=PRODUCT_CATEGORY_RELATIONSHIP('NONE','NONE',#28,#29);
#5=SHAPE_DEFINITION_REPRESENTATION(#30,#31);
#6= (GEOMETRIC_REPRESENTATION_CONTEXT(3)GLOBAL_UNCERTAINTY_ASSIGNED_CONTEXT((#34))GLOBAL_UNIT_ASSIGNED_CONTEXT((#36,#37,#38))REPRESENTATION_CONTEXT('NONE','WORKSPACE'));
#10=STYLED_ITEM('',(#40),#41);
#11=STYLED_ITEM('',(#42),#43);
#12=STYLED_ITEM('',(#44),#45);
#13=STYLED_ITEM('',(#46),#47);
#14=STYLED_ITEM('',(#48),#49);
#15=STYLED_ITEM('',(#50),#51);
#16=STYLED_ITEM('',(#52),#53);
#17=STYLED_ITEM('',(#54),#55);
#18=STYLED_ITEM('',(#56),#57);
#19=STYLED_ITEM('',(#58),#59);
#20=STYLED_ITEM('',(#60),#61);
#21=STYLED_ITEM('',(#62),#63);
#22=STYLED_ITEM('',(#64),#65);
#23=STYLED_ITEM('',(#66),#67);
#24=STYLED_ITEM('',(#68),#69);
#25=STYLED_ITEM('',(#70),#71);
#26=STYLED_ITEM('',(#72),#73);
#27=APPLICATION_CONTEXT(' ');
#28=PRODUCT_CATEGORY('part','NONE');
#29=PRODUCT_RELATED_PRODUCT_CATEGORY('detail',' ',(#74));
#30=PRODUCT_DEFINITION_SHAPE('NONE','NONE',#75);
#31=ADVANCED_BREP_SHAPE_REPRESENTATION('2020_08_19__11-18-39-748',(#73,#76),#6);
#34=UNCERTAINTY_MEASURE_WITH_UNIT(LENGTH_MEASURE(1.0E-006),#36,'','');
#36= (CONVERSION_BASED_UNIT('MILLIMETRE',#79)LENGTH_UNIT()NAMED_UNIT(#82));
#37= (NAMED_UNIT(#84)PLANE_ANGLE_UNIT()SI_UNIT($,.RADIAN.));
#38= (NAMED_UNIT(#84)SOLID_ANGLE_UNIT()SI_UNIT($,.STERADIAN.));
#40=PRESENTATION_STYLE_ASSIGNMENT((#90));
#41=ADVANCED_FACE('',(#91),#92,.F.);
#42=PRESENTATION_STYLE_ASSIGNMENT((#93));
#43=ADVANCED_FACE('',(#94),#95,.T.);
#44=PRESENTATION_STYLE_ASSIGNMENT((#96));
#45=ADVANCED_FACE('',(#97),#98,.T.);
#46=PRESENTATION_STYLE_ASSIGNMENT((#99));
#47=ADVANCED_FACE('',(#100),#101,.T.);
#48=PRESENTATION_STYLE_ASSIGNMENT((#102));
#49=ADVANCED_FACE('',(#103),#104,.F.);
#50=PRESENTATION_STYLE_ASSIGNMENT((#105));
#51=ADVANCED_FACE('',(#106,#107),#108,.T.);
#52=PRESENTATION_STYLE_ASSIGNMENT((#109));
#53=ADVANCED_FACE('',(#110),#111,.T.);
#54=PRESENTATION_STYLE_ASSIGNMENT((#112));
#55=ADVANCED_FACE('',(#113),#114,.F.);
#56=PRESENTATION_STYLE_ASSIGNMENT((#115));
#57=ADVANCED_FACE('',(#116),#117,.T.);
#58=PRESENTATION_STYLE_ASSIGNMENT((#118));
#59=ADVANCED_FACE('',(#119),#120,.F.);
#60=PRESENTATION_STYLE_ASSIGNMENT((#121));
#61=ADVANCED_FACE('',(#122),#123,.T.);
#62=PRESENTATION_STYLE_ASSIGNMENT((#124));
#63=ADVANCED_FACE('',(#125),#126,.T.);
#64=PRESENTATION_STYLE_ASSIGNMENT((#127));
#65=ADVANCED_FACE('',(#128),#129,.T.);
#66=PRESENTATION_STYLE_ASSIGNMENT((#130));
#67=ADVANCED_FACE('',(#131),#132,.T.);
#68=PRESENTATION_STYLE_ASSIGNMENT((#133));
#69=ADVANCED_FACE('',(#134),#135,.T.);
#70=PRESENTATION_STYLE_ASSIGNMENT((#136));
#71=ADVANCED_FACE('',(#137),#138,.T.);
#72=PRESENTATION_STYLE_ASSIGNMENT((#139));
#73=MANIFOLD_SOLID_BREP('2020_08_19__11-18-39-748',#140);
#74=PRODUCT('2020_08_19__11-18-39-748','','PART--DESC',(#141));
#75=PRODUCT_DEFINITION('','NONE',#142,#2);
#76=AXIS2_PLACEMENT_3D('',#143,#144,#145);
#79=LENGTH_MEASURE_WITH_UNIT(LENGTH_MEASURE(1.0),#146);
#82=DIMENSIONAL_EXPONENTS(1.0,0.0,0.0,0.0,0.0,0.0,0.0);
#84=DIMENSIONAL_EXPONENTS(0.0,0.0,0.0,0.0,0.0,0.0,0.0);
#90=SURFACE_STYLE_USAGE(.BOTH.,#147);
#91=FACE_OUTER_BOUND('',#148,.T.);
#92=CYLINDRICAL_SURFACE('',#149,6.0);
#93=SURFACE_STYLE_USAGE(.BOTH.,#150);
#94=FACE_OUTER_BOUND('',#151,.T.);
#95=CONICAL_SURFACE('',#152,13.58969196398,0.7853981634);
#96=SURFACE_STYLE_USAGE(.BOTH.,#153);
#97=FACE_OUTER_BOUND('',#154,.T.);
#98=CYLINDRICAL_SURFACE('',#155,7.15);
#99=SURFACE_STYLE_USAGE(.BOTH.,#156);
#100=FACE_OUTER_BOUND('',#157,.T.);
#101=CYLINDRICAL_SURFACE('',#158,7.15);
#102=SURFACE_STYLE_USAGE(.BOTH.,#159);
#103=FACE_OUTER_BOUND('',#160,.T.);
#104=PLANE('',#161);
#105=SURFACE_STYLE_USAGE(.BOTH.,#162);
#106=FACE_OUTER_BOUND('',#163,.T.);
#107=FACE_BOUND('',#164,.T.);
#108=PLANE('',#165);
#109=SURFACE_STYLE_USAGE(.BOTH.,#166);
#110=FACE_OUTER_BOUND('',#167,.T.);
#111=CONICAL_SURFACE('',#168,13.58969196398,0.7853981634);
#112=SURFACE_STYLE_USAGE(.BOTH.,#169);
#113=FACE_OUTER_BOUND('',#170,.T.);
#114=PLANE('',#171);
#115=SURFACE_STYLE_USAGE(.BOTH.,#172);
#116=FACE_OUTER_BOUND('',#173,.T.);
#117=PLANE('',#174);
#118=SURFACE_STYLE_USAGE(.BOTH.,#175);
#119=FACE_OUTER_BOUND('',#176,.T.);
#120=CYLINDRICAL_SURFACE('',#177,6.0);
#121=SURFACE_STYLE_USAGE(.BOTH.,#178);
#122=FACE_OUTER_BOUND('',#179,.T.);
#123=PLANE('',#180);
#124=SURFACE_STYLE_USAGE(.BOTH.,#181);
#125=FACE_OUTER_BOUND('',#182,.T.);
#126=PLANE('',#183);
#127=SURFACE_STYLE_USAGE(.BOTH.,#184);
#128=FACE_OUTER_BOUND('',#185,.T.);
#129=CYLINDRICAL_SURFACE('',#186,4.0);
#130=SURFACE_STYLE_USAGE(.BOTH.,#187);
#131=FACE_OUTER_BOUND('',#188,.T.);
#132=PLANE('',#189);
#133=SURFACE_STYLE_USAGE(.BOTH.,#190);
#134=FACE_OUTER_BOUND('',#191,.T.);
#135=PLANE('',#192);
#136=SURFACE_STYLE_USAGE(.BOTH.,#193);
#137=FACE_OUTER_BOUND('',#194,.T.);
#138=CYLINDRICAL_SURFACE('',#195,4.0);
#139=SURFACE_STYLE_USAGE(.BOTH.,#196);
#140=CLOSED_SHELL('',(#41,#43,#45,#47,#49,#51,#53,#55,#57,#59,#61,#63,#65,#67,#69,#71));
#141=PRODUCT_CONTEXT('',#27,'mechanical');
#142=PRODUCT_DEFINITION_FORMATION_WITH_SPECIFIED_SOURCE(' ','NONE',#74,.NOT_KNOWN.);
#143=CARTESIAN_POINT('',(0.0,0.0,0.0));
#144=DIRECTION('',(0.0,0.0,1.0));
#145=DIRECTION('',(1.0,0.0,0.0));
#146= (NAMED_UNIT(#82)LENGTH_UNIT()SI_UNIT(.MILLI.,.METRE.));
#147=SURFACE_SIDE_STYLE('',(#198));
#148=EDGE_LOOP('',(#199,#200,#201,#202));
#149=AXIS2_PLACEMENT_3D('',#203,#204,#205);
#150=SURFACE_SIDE_STYLE('',(#206));
#151=EDGE_LOOP('',(#207,#208,#209,#210,#211,#212));
#152=AXIS2_PLACEMENT_3D('',#213,#214,#215);
#153=SURFACE_SIDE_STYLE('',(#216));
#154=EDGE_LOOP('',(#217,#218,#219,#220));
#155=AXIS2_PLACEMENT_3D('',#221,#222,#223);
#156=SURFACE_SIDE_STYLE('',(#224));
#157=EDGE_LOOP('',(#225,#226,#227,#228));
#158=AXIS2_PLACEMENT_3D('',#229,#230,#231);
#159=SURFACE_SIDE_STYLE('',(#232));
#160=EDGE_LOOP('',(#233,#234));
#161=AXIS2_PLACEMENT_3D('',#235,#236,#237);
#162=SURFACE_SIDE_STYLE('',(#238));
#163=EDGE_LOOP('',(#239,#240));
#164=EDGE_LOOP('',(#241,#242));
#165=AXIS2_PLACEMENT_3D('',#243,#244,#245);
#166=SURFACE_SIDE_STYLE('',(#246));
#167=EDGE_LOOP('',(#247,#248,#249,#250,#251,#252));
#168=AXIS2_PLACEMENT_3D('',#253,#254,#255);
#169=SURFACE_SIDE_STYLE('',(#256));
#170=EDGE_LOOP('',(#257,#258,#259,#260,#261));
#171=AXIS2_PLACEMENT_3D('',#262,#263,#264);
#172=SURFACE_SIDE_STYLE('',(#265));
#173=EDGE_LOOP('',(#266,#267,#268,#269,#270,#271,#272,#273,#274));
#174=AXIS2_PLACEMENT_3D('',#275,#276,#277);
#175=SURFACE_SIDE_STYLE('',(#278));
#176=EDGE_LOOP('',(#279,#280,#281,#282));
#177=AXIS2_PLACEMENT_3D('',#283,#284,#285);
#178=SURFACE_SIDE_STYLE('',(#286));
#179=EDGE_LOOP('',(#287,#288,#289,#290));
#180=AXIS2_PLACEMENT_3D('',#291,#292,#293);
#181=SURFACE_SIDE_STYLE('',(#294));
#182=EDGE_LOOP('',(#295,#296,#297,#298));
#183=AXIS2_PLACEMENT_3D('',#299,#300,#301);
#184=SURFACE_SIDE_STYLE('',(#302));
#185=EDGE_LOOP('',(#303,#304,#305,#306));
#186=AXIS2_PLACEMENT_3D('',#307,#308,#309);
#187=SURFACE_SIDE_STYLE('',(#310));
#188=EDGE_LOOP('',(#311,#312,#313,#314,#315,#316,#317,#318,#319));
#189=AXIS2_PLACEMENT_3D('',#320,#321,#322);
#190=SURFACE_SIDE_STYLE('',(#323));
#191=EDGE_LOOP('',(#324,#325,#326,#327,#328));
#192=AXIS2_PLACEMENT_3D('',#329,#330,#331);
#193=SURFACE_SIDE_STYLE('',(#332));
#194=EDGE_LOOP('',(#333,#334,#335,#336));
#195=AXIS2_PLACEMENT_3D('',#337,#338,#339);
#196=SURFACE_SIDE_STYLE('',(#340));
#198=SURFACE_STYLE_FILL_AREA(#341);
#199=ORIENTED_EDGE('',*,*,#342,.F.);
#200=ORIENTED_EDGE('',*,*,#343,.T.);
#201=ORIENTED_EDGE('',*,*,#344,.T.);
#202=ORIENTED_EDGE('',*,*,#345,.T.);
#203=CARTESIAN_POINT('',(12.5,-27.0,0.0));
#204=DIRECTION('',(-1.0,0.0,0.0));
#205=DIRECTION('',(0.0,1.0,0.0));
#206=SURFACE_STYLE_FILL_AREA(#346);
#207=ORIENTED_EDGE('',*,*,#347,.F.);
#208=ORIENTED_EDGE('',*,*,#348,.F.);
#209=ORIENTED_EDGE('',*,*,#349,.F.);
#210=ORIENTED_EDGE('',*,*,#350,.T.);
#211=ORIENTED_EDGE('',*,*,#351,.T.);
#212=ORIENTED_EDGE('',*,*,#352,.T.);
#213=CARTESIAN_POINT('',(0.0,-4.589691963978,0.0));
#214=DIRECTION('',(-0.0,-1.0,-0.0));
#215=DIRECTION('',(0.0,0.0,-1.0));
#216=SURFACE_STYLE_FILL_AREA(#353);
#217=ORIENTED_EDGE('',*,*,#354,.F.);
#218=ORIENTED_EDGE('',*,*,#355,.F.);
#219=ORIENTED_EDGE('',*,*,#356,.F.);
#220=ORIENTED_EDGE('',*,*,#357,.F.);
#221=CARTESIAN_POINT('',(0.0,42.0,0.0));
#222=DIRECTION('',(0.0,1.0,0.0));
#223=DIRECTION('',(-1.0,0.0,0.0));
#224=SURFACE_STYLE_FILL_AREA(#358);
#225=ORIENTED_EDGE('',*,*,#354,.T.);
#226=ORIENTED_EDGE('',*,*,#359,.F.);
#227=ORIENTED_EDGE('',*,*,#356,.T.);
#228=ORIENTED_EDGE('',*,*,#360,.F.);
#229=CARTESIAN_POINT('',(0.0,42.0,0.0));
#230=DIRECTION('',(0.0,1.0,0.0));
#231=DIRECTION('',(-1.0,0.0,0.0));
#232=SURFACE_STYLE_FILL_AREA(#361);
#233=ORIENTED_EDGE('',*,*,#360,.T.);
#234=ORIENTED_EDGE('',*,*,#355,.T.);
#235=CARTESIAN_POINT('',(0.0,40.0,0.0));
#236=DIRECTION('',(0.0,-1.0,0.0));
#237=DIRECTION('',(0.0,0.0,1.0));
#238=SURFACE_STYLE_FILL_AREA(#362);
#239=ORIENTED_EDGE('',*,*,#363,.T.);
#240=ORIENTED_EDGE('',*,*,#348,.T.);
#241=ORIENTED_EDGE('',*,*,#357,.T.);
#242=ORIENTED_EDGE('',*,*,#359,.T.);
#243=CARTESIAN_POINT('',(12.5,0.0,-13.2));
#244=DIRECTION('',(0.0,1.0,0.0));
#245=DIRECTION('',(-1.0,0.0,0.0));
#246=SURFACE_STYLE_FILL_AREA(#364);
#247=ORIENTED_EDGE('',*,*,#347,.T.);
#248=ORIENTED_EDGE('',*,*,#365,.T.);
#249=ORIENTED_EDGE('',*,*,#366,.T.);
#250=ORIENTED_EDGE('',*,*,#367,.T.);
#251=ORIENTED_EDGE('',*,*,#349,.T.);
#252=ORIENTED_EDGE('',*,*,#363,.F.);
#253=CARTESIAN_POINT('',(0.0,-4.589691963978,0.0));
#254=DIRECTION('',(-0.0,-1.0,-0.0));
#255=DIRECTION('',(0.0,0.0,-1.0));
#256=SURFACE_STYLE_FILL_AREA(#368);
#257=ORIENTED_EDGE('',*,*,#365,.F.);
#258=ORIENTED_EDGE('',*,*,#352,.F.);
#259=ORIENTED_EDGE('',*,*,#369,.F.);
#260=ORIENTED_EDGE('',*,*,#370,.T.);
#261=ORIENTED_EDGE('',*,*,#371,.F.);
#262=CARTESIAN_POINT('',(0.0,0.0,-13.2));
#263=DIRECTION('',(0.0,-0.0,1.0));
#264=DIRECTION('',(0.0,1.0,0.0));
#265=SURFACE_STYLE_FILL_AREA(#372);
#266=ORIENTED_EDGE('',*,*,#345,.F.);
#267=ORIENTED_EDGE('',*,*,#373,.T.);
#268=ORIENTED_EDGE('',*,*,#374,.T.);
#269=ORIENTED_EDGE('',*,*,#375,.F.);
#270=ORIENTED_EDGE('',*,*,#366,.F.);
#271=ORIENTED_EDGE('',*,*,#371,.T.);
#272=ORIENTED_EDGE('',*,*,#376,.T.);
#273=ORIENTED_EDGE('',*,*,#377,.T.);
#274=ORIENTED_EDGE('',*,*,#378,.F.);
#275=CARTESIAN_POINT('',(-12.5,0.0,-13.2));
#276=DIRECTION('',(-1.0,0.0,0.0));
#277=DIRECTION('',(0.0,1.0,0.0));
#278=SURFACE_STYLE_FILL_AREA(#379);
#279=ORIENTED_EDGE('',*,*,#342,.T.);
#280=ORIENTED_EDGE('',*,*,#378,.T.);
#281=ORIENTED_EDGE('',*,*,#380,.T.);
#282=ORIENTED_EDGE('',*,*,#381,.T.);
#283=CARTESIAN_POINT('',(12.5,-27.0,0.0));
#284=DIRECTION('',(-1.0,0.0,0.0));
#285=DIRECTION('',(0.0,1.0,0.0));
#286=SURFACE_STYLE_FILL_AREA(#382);
#287=ORIENTED_EDGE('',*,*,#344,.F.);
#288=ORIENTED_EDGE('',*,*,#383,.T.);
#289=ORIENTED_EDGE('',*,*,#384,.F.);
#290=ORIENTED_EDGE('',*,*,#373,.F.);
#291=CARTESIAN_POINT('',(-12.5,-30.0,-13.2));
#292=DIRECTION('',(0.0,-1.0,0.0));
#293=DIRECTION('',(0.0,0.0,1.0));
#294=SURFACE_STYLE_FILL_AREA(#385);
#295=ORIENTED_EDGE('',*,*,#380,.F.);
#296=ORIENTED_EDGE('',*,*,#377,.F.);
#297=ORIENTED_EDGE('',*,*,#386,.F.);
#298=ORIENTED_EDGE('',*,*,#387,.T.);
#299=CARTESIAN_POINT('',(-12.5,-30.0,-13.2));
#300=DIRECTION('',(0.0,-1.0,0.0));
#301=DIRECTION('',(0.0,0.0,1.0));
#302=SURFACE_STYLE_FILL_AREA(#388);
#303=ORIENTED_EDGE('',*,*,#389,.F.);
#304=ORIENTED_EDGE('',*,*,#390,.F.);
#305=ORIENTED_EDGE('',*,*,#374,.F.);
#306=ORIENTED_EDGE('',*,*,#384,.T.);
#307=CARTESIAN_POINT('',(-12.647852,-26.0,9.2));
#308=DIRECTION('',(-1.0,0.0,0.0));
#309=DIRECTION('',(0.0,0.0,1.0));
#310=SURFACE_STYLE_FILL_AREA(#391);
#311=ORIENTED_EDGE('',*,*,#381,.F.);
#312=ORIENTED_EDGE('',*,*,#387,.F.);
#313=ORIENTED_EDGE('',*,*,#392,.T.);
#314=ORIENTED_EDGE('',*,*,#369,.T.);
#315=ORIENTED_EDGE('',*,*,#351,.F.);
#316=ORIENTED_EDGE('',*,*,#393,.F.);
#317=ORIENTED_EDGE('',*,*,#389,.T.);
#318=ORIENTED_EDGE('',*,*,#383,.F.);
#319=ORIENTED_EDGE('',*,*,#343,.F.);
#320=CARTESIAN_POINT('',(12.5,-30.0,-13.2));
#321=DIRECTION('',(1.0,0.0,0.0));
#322=DIRECTION('',(0.0,0.0,-1.0));
#323=SURFACE_STYLE_FILL_AREA(#394);
#324=ORIENTED_EDGE('',*,*,#367,.F.);
#325=ORIENTED_EDGE('',*,*,#375,.T.);
#326=ORIENTED_EDGE('',*,*,#390,.T.);
#327=ORIENTED_EDGE('',*,*,#393,.T.);
#328=ORIENTED_EDGE('',*,*,#350,.F.);
#329=CARTESIAN_POINT('',(0.0,0.0,13.2));
#330=DIRECTION('',(0.0,-0.0,1.0));
#331=DIRECTION('',(0.0,1.0,0.0));
#332=SURFACE_STYLE_FILL_AREA(#395);
#333=ORIENTED_EDGE('',*,*,#376,.F.);
#334=ORIENTED_EDGE('',*,*,#370,.F.);
#335=ORIENTED_EDGE('',*,*,#392,.F.);
#336=ORIENTED_EDGE('',*,*,#386,.T.);
#337=CARTESIAN_POINT('',(12.661184,-26.0,-9.2));
#338=DIRECTION('',(1.0,-0.0,0.0));
#339=DIRECTION('',(0.0,0.0,-1.0));
#340=SURFACE_STYLE_FILL_AREA(#396);
#341=FILL_AREA_STYLE('',(#397));
#342=EDGE_CURVE('',#398,#399,#400,.T.);
#343=EDGE_CURVE('',#398,#401,#402,.T.);
#344=EDGE_CURVE('',#401,#403,#404,.T.);
#345=EDGE_CURVE('',#403,#399,#405,.T.);
#346=FILL_AREA_STYLE('',(#406));
#347=EDGE_CURVE('',#407,#408,#409,.T.);
#348=EDGE_CURVE('',#410,#407,#411,.T.);
#349=EDGE_CURVE('',#412,#410,#413,.T.);
#350=EDGE_CURVE('',#412,#414,#415,.T.);
#351=EDGE_CURVE('',#414,#416,#417,.T.);
#352=EDGE_CURVE('',#416,#408,#418,.T.);
#353=FILL_AREA_STYLE('',(#419));
#354=EDGE_CURVE('',#420,#421,#422,.T.);
#355=EDGE_CURVE('',#423,#420,#424,.T.);
#356=EDGE_CURVE('',#425,#423,#426,.T.);
#357=EDGE_CURVE('',#421,#425,#427,.T.);
#358=FILL_AREA_STYLE('',(#428));
#359=EDGE_CURVE('',#425,#421,#429,.T.);
#360=EDGE_CURVE('',#420,#423,#430,.T.);
#361=FILL_AREA_STYLE('',(#431));
#362=FILL_AREA_STYLE('',(#432));
#363=EDGE_CURVE('',#407,#410,#433,.T.);
#364=FILL_AREA_STYLE('',(#434));
#365=EDGE_CURVE('',#408,#435,#436,.T.);
#366=EDGE_CURVE('',#435,#437,#438,.T.);
#367=EDGE_CURVE('',#437,#412,#439,.T.);
#368=FILL_AREA_STYLE('',(#440));
#369=EDGE_CURVE('',#441,#416,#442,.T.);
#370=EDGE_CURVE('',#441,#443,#444,.T.);
#371=EDGE_CURVE('',#435,#443,#445,.T.);
#372=FILL_AREA_STYLE('',(#446));
#373=EDGE_CURVE('',#403,#447,#448,.T.);
#374=EDGE_CURVE('',#447,#449,#450,.T.);
#375=EDGE_CURVE('',#437,#449,#451,.T.);
#376=EDGE_CURVE('',#443,#452,#453,.T.);
#377=EDGE_CURVE('',#452,#454,#455,.T.);
#378=EDGE_CURVE('',#399,#454,#456,.T.);
#379=FILL_AREA_STYLE('',(#457));
#380=EDGE_CURVE('',#454,#458,#459,.T.);
#381=EDGE_CURVE('',#458,#398,#460,.T.);
#382=FILL_AREA_STYLE('',(#461));
#383=EDGE_CURVE('',#401,#462,#463,.T.);
#384=EDGE_CURVE('',#447,#462,#464,.T.);
#385=FILL_AREA_STYLE('',(#465));
#386=EDGE_CURVE('',#466,#452,#467,.T.);
#387=EDGE_CURVE('',#466,#458,#468,.T.);
#388=FILL_AREA_STYLE('',(#469));
#389=EDGE_CURVE('',#470,#462,#471,.T.);
#390=EDGE_CURVE('',#449,#470,#472,.T.);
#391=FILL_AREA_STYLE('',(#473));
#392=EDGE_CURVE('',#466,#441,#474,.T.);
#393=EDGE_CURVE('',#470,#414,#475,.T.);
#394=FILL_AREA_STYLE('',(#476));
#395=FILL_AREA_STYLE('',(#477));
#396=FILL_AREA_STYLE('',(#478));
#397=FILL_AREA_STYLE_COLOUR('',#479);
#398=VERTEX_POINT('',#480);
#399=VERTEX_POINT('',#481);
#400=LINE('',#482,#483);
#401=VERTEX_POINT('',#484);
#402=CIRCLE('',#485,6.0);
#403=VERTEX_POINT('',#486);
#404=LINE('',#487,#488);
#405=CIRCLE('',#489,6.0);
#406=FILL_AREA_STYLE_COLOUR('',#490);
#407=VERTEX_POINT('',#491);
#408=VERTEX_POINT('',#492);
#409=LINE('',#493,#494);
#410=VERTEX_POINT('',#495);
#411=CIRCLE('',#496,9.0);
#412=VERTEX_POINT('',#497);
#413=LINE('',#498,#499);
#414=VERTEX_POINT('',#500);
#415=(B_SPLINE_CURVE(2,(#502,#503,#504),.UNSPECIFIED.,.F.,.F.)B_SPLINE_CURVE_WITH_KNOTS((3,3),(-4.05166632387247,-1.6807599741289),.UNSPECIFIED.)RATIONAL_B_SPLINE_CURVE((1.86363636363644,1.86363636363644,1.56790841123461))BOUNDED_CURVE()REPRESENTATION_ITEM('')GEOMETRIC_REPRESENTATION_ITEM()CURVE());
#416=VERTEX_POINT('',#511);
#417=(B_SPLINE_CURVE(2,(#513,#514,#515),.UNSPECIFIED.,.F.,.F.)B_SPLINE_CURVE_WITH_KNOTS((3,3),(-7.47879565101344,-1.902035868634),.UNSPECIFIED.)RATIONAL_B_SPLINE_CURVE((1.71124687912054,2.48875312087962,1.71124687912054))BOUNDED_CURVE()REPRESENTATION_ITEM('')GEOMETRIC_REPRESENTATION_ITEM()CURVE());
#418=(B_SPLINE_CURVE(2,(#523,#524,#525),.UNSPECIFIED.,.F.,.F.)B_SPLINE_CURVE_WITH_KNOTS((3,3),(1.68075997412896,4.05166632387249),.UNSPECIFIED.)RATIONAL_B_SPLINE_CURVE((1.56790841123461,1.86363636363644,1.86363636363644))BOUNDED_CURVE()REPRESENTATION_ITEM('')GEOMETRIC_REPRESENTATION_ITEM()CURVE());
#419=FILL_AREA_STYLE_COLOUR('',#532);
#420=VERTEX_POINT('',#533);
#421=VERTEX_POINT('',#534);
#422=LINE('',#535,#536);
#423=VERTEX_POINT('',#537);
#424=CIRCLE('',#538,7.15);
#425=VERTEX_POINT('',#539);
#426=LINE('',#540,#541);
#427=CIRCLE('',#542,7.15);
#428=FILL_AREA_STYLE_COLOUR('',#543);
#429=CIRCLE('',#544,7.15);
#430=CIRCLE('',#545,7.15);
#431=FILL_AREA_STYLE_COLOUR('',#546);
#432=FILL_AREA_STYLE_COLOUR('',#547);
#433=CIRCLE('',#548,9.0);
#434=FILL_AREA_STYLE_COLOUR('',#549);
#435=VERTEX_POINT('',#550);
#436=(B_SPLINE_CURVE(2,(#552,#553,#554),.UNSPECIFIED.,.F.,.F.)B_SPLINE_CURVE_WITH_KNOTS((3,3),(-4.05166632387247,-1.6807599741289),.UNSPECIFIED.)RATIONAL_B_SPLINE_CURVE((1.86363636363644,1.86363636363644,1.56790841123461))BOUNDED_CURVE()REPRESENTATION_ITEM('')GEOMETRIC_REPRESENTATION_ITEM()CURVE());
#437=VERTEX_POINT('',#561);
#438=(B_SPLINE_CURVE(2,(#563,#564,#565),.UNSPECIFIED.,.F.,.F.)B_SPLINE_CURVE_WITH_KNOTS((3,3),(1.902035868634,7.47879565101344),.UNSPECIFIED.)RATIONAL_B_SPLINE_CURVE((1.71124687912054,2.48875312087962,1.71124687912054))BOUNDED_CURVE()REPRESENTATION_ITEM('')GEOMETRIC_REPRESENTATION_ITEM()CURVE());
#439=(B_SPLINE_CURVE(2,(#573,#574,#575),.UNSPECIFIED.,.F.,.F.)B_SPLINE_CURVE_WITH_KNOTS((3,3),(1.68075997412896,4.05166632387249),.UNSPECIFIED.)RATIONAL_B_SPLINE_CURVE((1.56790841123461,1.86363636363644,1.86363636363644))BOUNDED_CURVE()REPRESENTATION_ITEM('')GEOMETRIC_REPRESENTATION_ITEM()CURVE());
#440=FILL_AREA_STYLE_COLOUR('',#582);
#441=VERTEX_POINT('',#583);
#442=LINE('',#584,#585);
#443=VERTEX_POINT('',#586);
#444=LINE('',#587,#588);
#445=LINE('',#589,#590);
#446=FILL_AREA_STYLE_COLOUR('',#591);
#447=VERTEX_POINT('',#592);
#448=LINE('',#593,#594);
#449=VERTEX_POINT('',#595);
#450=CIRCLE('',#596,4.0);
#451=LINE('',#597,#598);
#452=VERTEX_POINT('',#599);
#453=CIRCLE('',#600,4.0);
#454=VERTEX_POINT('',#601);
#455=LINE('',#602,#603);
#456=CIRCLE('',#604,6.0);
#457=FILL_AREA_STYLE_COLOUR('',#605);
#458=VERTEX_POINT('',#606);
#459=LINE('',#607,#608);
#460=CIRCLE('',#609,6.0);
#461=FILL_AREA_STYLE_COLOUR('',#610);
#462=VERTEX_POINT('',#611);
#463=LINE('',#612,#613);
#464=LINE('',#614,#615);
#465=FILL_AREA_STYLE_COLOUR('',#616);
#466=VERTEX_POINT('',#617);
#467=LINE('',#618,#619);
#468=LINE('',#620,#621);
#469=FILL_AREA_STYLE_COLOUR('',#622);
#470=VERTEX_POINT('',#623);
#471=CIRCLE('',#624,4.0);
#472=LINE('',#625,#626);
#473=FILL_AREA_STYLE_COLOUR('',#627);
#474=CIRCLE('',#628,4.0);
#475=LINE('',#629,#630);
#476=FILL_AREA_STYLE_COLOUR('',#631);
#477=FILL_AREA_STYLE_COLOUR('',#632);
#478=FILL_AREA_STYLE_COLOUR('',#633);
#479=COLOUR_RGB('',0.749019622802734,0.749019622802734,0.749019622802734);
#480=CARTESIAN_POINT('',(12.5,-21.0,7.34788079488412E-016));
#481=CARTESIAN_POINT('',(-12.5,-21.0,7.34788079488412E-016));
#482=CARTESIAN_POINT('',(12.5,-21.0,7.34788079488412E-016));
#483=VECTOR('',#634,1.0);
#484=CARTESIAN_POINT('',(12.5,-30.0,5.196152422707));
#485=AXIS2_PLACEMENT_3D('',#635,#636,#637);
#486=CARTESIAN_POINT('',(-12.5,-30.0,5.196152422707));
#487=CARTESIAN_POINT('',(12.5,-30.0,5.196152422707));
#488=VECTOR('',#638,25.0);
#489=AXIS2_PLACEMENT_3D('',#639,#640,#641);
#490=COLOUR_RGB('',0.749019622802734,0.749019622802734,0.749019622802734);
#491=CARTESIAN_POINT('',(0.0,0.0,-9.0));
#492=CARTESIAN_POINT('',(0.0,-4.2,-13.2));
#493=CARTESIAN_POINT('',(1.66425727650866E-015,-4.589691963978,-13.58969196398));
#494=VECTOR('',#642,1.0);
#495=CARTESIAN_POINT('',(-1.10218211923262E-015,0.0,9.0));
#496=AXIS2_PLACEMENT_3D('',#643,#644,#645);
#497=CARTESIAN_POINT('',(0.0,-4.2,13.2));
#498=CARTESIAN_POINT('',(-1.66425727650866E-015,-4.589691963978,13.58969196398));
#499=VECTOR('',#646,1.0);
#500=CARTESIAN_POINT('',(12.5,-9.179383927955,13.2));
#502=CARTESIAN_POINT('',(1.90633416911239E-014,-4.19999999999799,13.2));
#503=CARTESIAN_POINT('',(5.25822942792104,-4.199999999998,13.2));
#504=CARTESIAN_POINT('',(12.5000000000007,-9.17938392795381,13.2));
#511=CARTESIAN_POINT('',(12.5,-9.179383927955,-13.2));
#513=CARTESIAN_POINT('',(12.5,-9.17938392792268,13.1999999999578));
#514=CARTESIAN_POINT('',(12.5,0.405099280622287,4.44089209850063E-016));
#515=CARTESIAN_POINT('',(12.5,-9.17938392792269,-13.1999999999578));
#523=CARTESIAN_POINT('',(12.5000000000007,-9.17938392795381,-13.2));
#524=CARTESIAN_POINT('',(5.25822942792104,-4.199999999998,-13.2));
#525=CARTESIAN_POINT('',(1.90633416911239E-014,-4.19999999999799,-13.2));
#532=COLOUR_RGB('',0.749019622802734,0.749019622802734,0.749019622802734);
#533=CARTESIAN_POINT('',(-7.15,40.0,0.0));
#534=CARTESIAN_POINT('',(-7.15,0.0,0.0));
#535=CARTESIAN_POINT('',(-7.15,20.0,-8.75622461390357E-016));
#536=VECTOR('',#647,1.0);
#537=CARTESIAN_POINT('',(7.15,40.0,8.75622461390358E-016));
#538=AXIS2_PLACEMENT_3D('',#648,#649,#650);
#539=CARTESIAN_POINT('',(7.14999999999999,0.0,8.75622461390356E-016));
#540=CARTESIAN_POINT('',(7.15,20.0,8.75622461390358E-016));
#541=VECTOR('',#651,1.0);
#542=AXIS2_PLACEMENT_3D('',#652,#653,#654);
#543=COLOUR_RGB('',0.749019622802734,0.749019622802734,0.749019622802734);
#544=AXIS2_PLACEMENT_3D('',#655,#656,#657);
#545=AXIS2_PLACEMENT_3D('',#658,#659,#660);
#546=COLOUR_RGB('',0.749019622802734,0.749019622802734,0.749019622802734);
#547=COLOUR_RGB('',0.749019622802734,0.749019622802734,0.749019622802734);
#548=AXIS2_PLACEMENT_3D('',#661,#662,#663);
#549=COLOUR_RGB('',0.749019622802734,0.749019622802734,0.749019622802734);
#550=CARTESIAN_POINT('',(-12.5,-9.179383927955,-13.2));
#552=CARTESIAN_POINT('',(-1.90633416911239E-014,-4.19999999999799,-13.2));
#553=CARTESIAN_POINT('',(-5.25822942792104,-4.199999999998,-13.2));
#554=CARTESIAN_POINT('',(-12.5000000000007,-9.17938392795381,-13.2));
#561=CARTESIAN_POINT('',(-12.5,-9.179383927955,13.2));
#563=CARTESIAN_POINT('',(-12.5,-9.17938392792269,-13.1999999999578));
#564=CARTESIAN_POINT('',(-12.5,0.405099280622287,4.44089209850063E-016));
#565=CARTESIAN_POINT('',(-12.5,-9.17938392792268,13.1999999999578));
#573=CARTESIAN_POINT('',(-12.5000000000007,-9.17938392795381,13.2));
#574=CARTESIAN_POINT('',(-5.25822942792104,-4.199999999998,13.2));
#575=CARTESIAN_POINT('',(-1.90633416911239E-014,-4.19999999999799,13.2));
#582=COLOUR_RGB('',0.749019622802734,0.749019622802734,0.749019622802734);
#583=CARTESIAN_POINT('',(12.5,-26.0,-13.2));
#584=CARTESIAN_POINT('',(12.5,-26.0,-13.2));
#585=VECTOR('',#664,16.820616072045);
#586=CARTESIAN_POINT('',(-12.5,-26.0,-13.2));
#587=CARTESIAN_POINT('',(12.5,-26.0,-13.2));
#588=VECTOR('',#665,25.0);
#589=CARTESIAN_POINT('',(-12.5,-9.179383927955,-13.2));
#590=VECTOR('',#666,16.820616072045);
#591=COLOUR_RGB('',0.749019622802734,0.749019622802734,0.749019622802734);
#592=CARTESIAN_POINT('',(-12.5,-30.0,9.2));
#593=CARTESIAN_POINT('',(-12.5,-30.0,5.196152422707));
#594=VECTOR('',#667,4.003847577293);
#595=CARTESIAN_POINT('',(-12.5,-26.0,13.2));
#596=AXIS2_PLACEMENT_3D('',#668,#669,#670);
#597=CARTESIAN_POINT('',(-12.5,-9.179383927955,13.2));
#598=VECTOR('',#671,16.820616072045);
#599=CARTESIAN_POINT('',(-12.5,-30.0,-9.2));
#600=AXIS2_PLACEMENT_3D('',#672,#673,#674);
#601=CARTESIAN_POINT('',(-12.5,-30.0,-5.196152422707));
#602=CARTESIAN_POINT('',(-12.5,-30.0,-9.2));
#603=VECTOR('',#675,4.003847577293);
#604=AXIS2_PLACEMENT_3D('',#676,#677,#678);
#605=COLOUR_RGB('',0.749019622802734,0.749019622802734,0.749019622802734);
#606=CARTESIAN_POINT('',(12.5,-30.0,-5.196152422707));
#607=CARTESIAN_POINT('',(-12.5,-30.0,-5.196152422707));
#608=VECTOR('',#679,25.0);
#609=AXIS2_PLACEMENT_3D('',#680,#681,#682);
#610=COLOUR_RGB('',0.749019622802734,0.749019622802734,0.749019622802734);
#611=CARTESIAN_POINT('',(12.5,-30.0,9.2));
#612=CARTESIAN_POINT('',(12.5,-30.0,5.196152422707));
#613=VECTOR('',#683,4.003847577293);
#614=CARTESIAN_POINT('',(-12.5,-30.0,9.2));
#615=VECTOR('',#684,25.0);
#616=COLOUR_RGB('',0.749019622802734,0.749019622802734,0.749019622802734);
#617=CARTESIAN_POINT('',(12.5,-30.0,-9.2));
#618=CARTESIAN_POINT('',(12.5,-30.0,-9.2));
#619=VECTOR('',#685,25.0);
#620=CARTESIAN_POINT('',(12.5,-30.0,-9.2));
#621=VECTOR('',#686,4.003847577293);
#622=COLOUR_RGB('',0.749019622802734,0.749019622802734,0.749019622802734);
#623=CARTESIAN_POINT('',(12.5,-26.0,13.2));
#624=AXIS2_PLACEMENT_3D('',#687,#688,#689);
#625=CARTESIAN_POINT('',(-12.5,-26.0,13.2));
#626=VECTOR('',#690,25.0);
#627=COLOUR_RGB('',0.749019622802734,0.749019622802734,0.749019622802734);
#628=AXIS2_PLACEMENT_3D('',#691,#692,#693);
#629=CARTESIAN_POINT('',(12.5,-26.0,13.2));
#630=VECTOR('',#694,16.820616072045);
#631=COLOUR_RGB('',0.749019622802734,0.749019622802734,0.749019622802734);
#632=COLOUR_RGB('',0.749019622802734,0.749019622802734,0.749019622802734);
#633=COLOUR_RGB('',0.749019622802734,0.749019622802734,0.749019622802734);
#634=DIRECTION('',(-1.0,-0.0,-0.0));
#635=CARTESIAN_POINT('',(12.5,-27.0,0.0));
#636=DIRECTION('',(1.0,0.0,0.0));
#637=DIRECTION('',(0.0,-0.500000000000017,-0.866025403784429));
#638=DIRECTION('',(-1.0,0.0,0.0));
#639=CARTESIAN_POINT('',(-12.5,-27.0,0.0));
#640=DIRECTION('',(-1.0,0.0,0.0));
#641=DIRECTION('',(0.0,-0.500000000000017,0.866025403784429));
#642=DIRECTION('',(8.65956056237703E-017,-0.707106781184743,-0.707106781188352));
#643=CARTESIAN_POINT('',(0.0,0.0,0.0));
#644=DIRECTION('',(0.0,1.0,0.0));
#645=DIRECTION('',(0.0,0.0,-1.0));
#646=DIRECTION('',(8.65956056237703E-017,0.707106781184743,-0.707106781188352));
#647=DIRECTION('',(-0.0,-1.0,-0.0));
#648=CARTESIAN_POINT('',(0.0,40.0,0.0));
#649=DIRECTION('',(0.0,1.0,0.0));
#650=DIRECTION('',(-1.0,0.0,0.0));
#651=DIRECTION('',(0.0,1.0,0.0));
#652=CARTESIAN_POINT('',(-1.224646799147E-014,0.0,0.0));
#653=DIRECTION('',(0.0,-1.0,0.0));
#654=DIRECTION('',(-1.0,0.0,0.0));
#655=CARTESIAN_POINT('',(-1.224646799147E-014,0.0,0.0));
#656=DIRECTION('',(0.0,-1.0,0.0));
#657=DIRECTION('',(-1.0,0.0,0.0));
#658=CARTESIAN_POINT('',(0.0,40.0,0.0));
#659=DIRECTION('',(0.0,1.0,0.0));
#660=DIRECTION('',(-1.0,0.0,0.0));
#661=CARTESIAN_POINT('',(0.0,0.0,0.0));
#662=DIRECTION('',(0.0,1.0,0.0));
#663=DIRECTION('',(0.0,0.0,-1.0));
#664=DIRECTION('',(0.0,1.0,0.0));
#665=DIRECTION('',(-1.0,0.0,0.0));
#666=DIRECTION('',(0.0,-1.0,0.0));
#667=DIRECTION('',(0.0,0.0,1.0));
#668=CARTESIAN_POINT('',(-12.5,-26.0,9.2));
#669=DIRECTION('',(-1.0,0.0,0.0));
#670=DIRECTION('',(0.0,-1.0,0.0));
#671=DIRECTION('',(0.0,-1.0,0.0));
#672=CARTESIAN_POINT('',(-12.5,-26.0,-9.2));
#673=DIRECTION('',(-1.0,0.0,0.0));
#674=DIRECTION('',(0.0,0.0,-1.0));
#675=DIRECTION('',(0.0,0.0,1.0));
#676=CARTESIAN_POINT('',(-12.5,-27.0,0.0));
#677=DIRECTION('',(-1.0,0.0,0.0));
#678=DIRECTION('',(0.0,-0.500000000000017,0.866025403784429));
#679=DIRECTION('',(1.0,0.0,0.0));
#680=CARTESIAN_POINT('',(12.5,-27.0,0.0));
#681=DIRECTION('',(1.0,0.0,0.0));
#682=DIRECTION('',(0.0,-0.500000000000017,-0.866025403784429));
#683=DIRECTION('',(0.0,0.0,1.0));
#684=DIRECTION('',(1.0,0.0,0.0));
#685=DIRECTION('',(-1.0,0.0,0.0));
#686=DIRECTION('',(0.0,0.0,1.0));
#687=CARTESIAN_POINT('',(12.5,-26.0,9.2));
#688=DIRECTION('',(1.0,0.0,-0.0));
#689=DIRECTION('',(0.0,0.0,1.0));
#690=DIRECTION('',(1.0,0.0,0.0));
#691=CARTESIAN_POINT('',(12.5,-26.0,-9.2));
#692=DIRECTION('',(1.0,0.0,0.0));
#693=DIRECTION('',(0.0,-1.0,0.0));
#694=DIRECTION('',(0.0,1.0,0.0));
ENDSEC;
END-ISO-10303-21;
