ISO-10303-21;
HEADER;
FILE_DESCRIPTION(('STEP AP214'),'1');
FILE_NAME('cctmp_9007139B-8D8B-4EE5-8530-BAAEAAD1E268_2022_11_15_16_58_17_0051_14380..stp','2022-11-15T15:58:17',('Bosch Rexroth AG'),('CADClick - www.CADClick.com'),'Spatial InterOp 3D',' ','unknown authorization - (Healing Option Enabled)');
FILE_SCHEMA(('AUTOMOTIVE_DESIGN'));
ENDSEC;
DATA;
#1=MECHANICAL_DESIGN_GEOMETRIC_PRESENTATION_REPRESENTATION(' ',(#10,#11,#12,#13,#14,#15,#16,#17,#18,#19,#20,#21,#22,#23,#24,#25,#26),#6);
#2=PRODUCT_DEFINITION_CONTEXT('',#27,'design');
#3=APPLICATION_PROTOCOL_DEFINITION('INTERNATIONAL STANDARD','automotive_design',1994,#27);
#4=PRODUCT_CATEGORY_RELATIONSHIP('NONE','NONE',#28,#29);
#5=SHAPE_DEFINITION_REPRESENTATION(#30,#31);
#6= (GEOMETRIC_REPRESENTATION_CONTEXT(3)GLOBAL_UNCERTAINTY_ASSIGNED_CONTEXT((#34))GLOBAL_UNIT_ASSIGNED_CONTEXT((#36,#37,#38))REPRESENTATION_CONTEXT('NONE','WORKSPACE'));
#10=STYLED_ITEM('',(#40),#41);
#11=STYLED_ITEM('',(#42),#43);
#12=STYLED_ITEM('',(#44),#45);
#13=STYLED_ITEM('',(#46),#47);
#14=STYLED_ITEM('',(#48),#49);
#15=STYLED_ITEM('',(#50),#51);
#16=STYLED_ITEM('',(#52),#53);
#17=STYLED_ITEM('',(#54),#55);
#18=STYLED_ITEM('',(#56),#57);
#19=STYLED_ITEM('',(#58),#59);
#20=STYLED_ITEM('',(#60),#61);
#21=STYLED_ITEM('',(#62),#63);
#22=STYLED_ITEM('',(#64),#65);
#23=STYLED_ITEM('',(#66),#67);
#24=STYLED_ITEM('',(#68),#69);
#25=STYLED_ITEM('',(#70),#71);
#26=STYLED_ITEM('',(#72),#73);
#27=APPLICATION_CONTEXT(' ');
#28=PRODUCT_CATEGORY('part','NONE');
#29=PRODUCT_RELATED_PRODUCT_CATEGORY('detail',' ',(#74));
#30=PRODUCT_DEFINITION_SHAPE('NONE','NONE',#75);
#31=ADVANCED_BREP_SHAPE_REPRESENTATION('2022_11_15_16_58_17_0051',(#73,#76),#6);
#34=UNCERTAINTY_MEASURE_WITH_UNIT(LENGTH_MEASURE(1.0E-06),#36,'','');
#36= (CONVERSION_BASED_UNIT('MILLIMETRE',#79)LENGTH_UNIT()NAMED_UNIT(#82));
#37= (NAMED_UNIT(#84)PLANE_ANGLE_UNIT()SI_UNIT($,.RADIAN.));
#38= (NAMED_UNIT(#84)SOLID_ANGLE_UNIT()SI_UNIT($,.STERADIAN.));
#40=PRESENTATION_STYLE_ASSIGNMENT((#90));
#41=ADVANCED_FACE('',(#91),#92,.T.);
#42=PRESENTATION_STYLE_ASSIGNMENT((#93));
#43=ADVANCED_FACE('',(#94),#95,.T.);
#44=PRESENTATION_STYLE_ASSIGNMENT((#96));
#45=ADVANCED_FACE('',(#97),#98,.T.);
#46=PRESENTATION_STYLE_ASSIGNMENT((#99));
#47=ADVANCED_FACE('',(#100),#101,.T.);
#48=PRESENTATION_STYLE_ASSIGNMENT((#102));
#49=ADVANCED_FACE('',(#103),#104,.T.);
#50=PRESENTATION_STYLE_ASSIGNMENT((#105));
#51=ADVANCED_FACE('',(#106),#107,.T.);
#52=PRESENTATION_STYLE_ASSIGNMENT((#108));
#53=ADVANCED_FACE('',(#109),#110,.T.);
#54=PRESENTATION_STYLE_ASSIGNMENT((#111));
#55=ADVANCED_FACE('',(#112),#113,.T.);
#56=PRESENTATION_STYLE_ASSIGNMENT((#114));
#57=ADVANCED_FACE('',(#115),#116,.T.);
#58=PRESENTATION_STYLE_ASSIGNMENT((#117));
#59=ADVANCED_FACE('',(#118),#119,.T.);
#60=PRESENTATION_STYLE_ASSIGNMENT((#120));
#61=ADVANCED_FACE('',(#121),#122,.T.);
#62=PRESENTATION_STYLE_ASSIGNMENT((#123));
#63=ADVANCED_FACE('',(#124),#125,.T.);
#64=PRESENTATION_STYLE_ASSIGNMENT((#126));
#65=ADVANCED_FACE('',(#127),#128,.T.);
#66=PRESENTATION_STYLE_ASSIGNMENT((#129));
#67=ADVANCED_FACE('',(#130),#131,.T.);
#68=PRESENTATION_STYLE_ASSIGNMENT((#132));
#69=ADVANCED_FACE('',(#133),#134,.F.);
#70=PRESENTATION_STYLE_ASSIGNMENT((#135));
#71=ADVANCED_FACE('',(#136),#137,.T.);
#72=PRESENTATION_STYLE_ASSIGNMENT((#138));
#73=MANIFOLD_SOLID_BREP('2022_11_15_16_58_17_0051',#139);
#74=PRODUCT('2022_11_15_16_58_17_0051','2022_11_15_16_58_17_0051','PART-2022_11_15_16_58_17_0051-DESC',(#140));
#75=PRODUCT_DEFINITION('','NONE',#141,#2);
#76=AXIS2_PLACEMENT_3D('',#142,#143,#144);
#79=LENGTH_MEASURE_WITH_UNIT(LENGTH_MEASURE(1.0),#145);
#82=DIMENSIONAL_EXPONENTS(1.0,0.0,0.0,0.0,0.0,0.0,0.0);
#84=DIMENSIONAL_EXPONENTS(0.0,0.0,0.0,0.0,0.0,0.0,0.0);
#90=SURFACE_STYLE_USAGE(.BOTH.,#146);
#91=FACE_OUTER_BOUND('',#147,.T.);
#92=PLANE('',#148);
#93=SURFACE_STYLE_USAGE(.BOTH.,#149);
#94=FACE_OUTER_BOUND('',#150,.T.);
#95=PLANE('',#151);
#96=SURFACE_STYLE_USAGE(.BOTH.,#152);
#97=FACE_OUTER_BOUND('',#153,.T.);
#98=PLANE('',#154);
#99=SURFACE_STYLE_USAGE(.BOTH.,#155);
#100=FACE_OUTER_BOUND('',#156,.T.);
#101=PLANE('',#157);
#102=SURFACE_STYLE_USAGE(.BOTH.,#158);
#103=FACE_OUTER_BOUND('',#159,.T.);
#104=PLANE('',#160);
#105=SURFACE_STYLE_USAGE(.BOTH.,#161);
#106=FACE_OUTER_BOUND('',#162,.T.);
#107=PLANE('',#163);
#108=SURFACE_STYLE_USAGE(.BOTH.,#164);
#109=FACE_OUTER_BOUND('',#165,.T.);
#110=PLANE('',#166);
#111=SURFACE_STYLE_USAGE(.BOTH.,#167);
#112=FACE_OUTER_BOUND('',#168,.T.);
#113=PLANE('',#169);
#114=SURFACE_STYLE_USAGE(.BOTH.,#170);
#115=FACE_OUTER_BOUND('',#171,.T.);
#116=PLANE('',#172);
#117=SURFACE_STYLE_USAGE(.BOTH.,#173);
#118=FACE_OUTER_BOUND('',#174,.T.);
#119=PLANE('',#175);
#120=SURFACE_STYLE_USAGE(.BOTH.,#176);
#121=FACE_OUTER_BOUND('',#177,.T.);
#122=PLANE('',#178);
#123=SURFACE_STYLE_USAGE(.BOTH.,#179);
#124=FACE_OUTER_BOUND('',#180,.T.);
#125=PLANE('',#181);
#126=SURFACE_STYLE_USAGE(.BOTH.,#182);
#127=FACE_OUTER_BOUND('',#183,.T.);
#128=PLANE('',#184);
#129=SURFACE_STYLE_USAGE(.BOTH.,#185);
#130=FACE_OUTER_BOUND('',#186,.T.);
#131=PLANE('',#187);
#132=SURFACE_STYLE_USAGE(.BOTH.,#188);
#133=FACE_OUTER_BOUND('',#189,.T.);
#134=PLANE('',#190);
#135=SURFACE_STYLE_USAGE(.BOTH.,#191);
#136=FACE_OUTER_BOUND('',#192,.T.);
#137=PLANE('',#193);
#138=SURFACE_STYLE_USAGE(.BOTH.,#194);
#139=CLOSED_SHELL('',(#41,#43,#45,#47,#49,#51,#53,#55,#57,#59,#61,#63,#65,#67,#69,#71));
#140=PRODUCT_CONTEXT('',#27,'mechanical');
#141=PRODUCT_DEFINITION_FORMATION_WITH_SPECIFIED_SOURCE(' ','NONE',#74,.NOT_KNOWN.);
#142=CARTESIAN_POINT('',(0.0,0.0,0.0));
#143=DIRECTION('',(0.0,0.0,1.0));
#144=DIRECTION('',(1.0,0.0,0.0));
#145= (NAMED_UNIT(#82)LENGTH_UNIT()SI_UNIT(.MILLI.,.METRE.));
#146=SURFACE_SIDE_STYLE('',(#196));
#147=EDGE_LOOP('',(#197,#198,#199,#200));
#148=AXIS2_PLACEMENT_3D('',#201,#202,#203);
#149=SURFACE_SIDE_STYLE('',(#204));
#150=EDGE_LOOP('',(#205,#206,#207,#208));
#151=AXIS2_PLACEMENT_3D('',#209,#210,#211);
#152=SURFACE_SIDE_STYLE('',(#212));
#153=EDGE_LOOP('',(#213,#214,#215,#216));
#154=AXIS2_PLACEMENT_3D('',#217,#218,#219);
#155=SURFACE_SIDE_STYLE('',(#220));
#156=EDGE_LOOP('',(#221,#222,#223,#224));
#157=AXIS2_PLACEMENT_3D('',#225,#226,#227);
#158=SURFACE_SIDE_STYLE('',(#228));
#159=EDGE_LOOP('',(#229,#230,#231,#232));
#160=AXIS2_PLACEMENT_3D('',#233,#234,#235);
#161=SURFACE_SIDE_STYLE('',(#236));
#162=EDGE_LOOP('',(#237,#238,#239,#240));
#163=AXIS2_PLACEMENT_3D('',#241,#242,#243);
#164=SURFACE_SIDE_STYLE('',(#244));
#165=EDGE_LOOP('',(#245,#246,#247,#248));
#166=AXIS2_PLACEMENT_3D('',#249,#250,#251);
#167=SURFACE_SIDE_STYLE('',(#252));
#168=EDGE_LOOP('',(#253,#254,#255,#256));
#169=AXIS2_PLACEMENT_3D('',#257,#258,#259);
#170=SURFACE_SIDE_STYLE('',(#260));
#171=EDGE_LOOP('',(#261,#262,#263,#264));
#172=AXIS2_PLACEMENT_3D('',#265,#266,#267);
#173=SURFACE_SIDE_STYLE('',(#268));
#174=EDGE_LOOP('',(#269,#270,#271,#272));
#175=AXIS2_PLACEMENT_3D('',#273,#274,#275);
#176=SURFACE_SIDE_STYLE('',(#276));
#177=EDGE_LOOP('',(#277,#278,#279,#280));
#178=AXIS2_PLACEMENT_3D('',#281,#282,#283);
#179=SURFACE_SIDE_STYLE('',(#284));
#180=EDGE_LOOP('',(#285,#286,#287,#288));
#181=AXIS2_PLACEMENT_3D('',#289,#290,#291);
#182=SURFACE_SIDE_STYLE('',(#292));
#183=EDGE_LOOP('',(#293,#294,#295,#296));
#184=AXIS2_PLACEMENT_3D('',#297,#298,#299);
#185=SURFACE_SIDE_STYLE('',(#300));
#186=EDGE_LOOP('',(#301,#302,#303,#304));
#187=AXIS2_PLACEMENT_3D('',#305,#306,#307);
#188=SURFACE_SIDE_STYLE('',(#308));
#189=EDGE_LOOP('',(#309,#310,#311,#312,#313,#314,#315,#316,#317,#318,#319,#320,#321,#322));
#190=AXIS2_PLACEMENT_3D('',#323,#324,#325);
#191=SURFACE_SIDE_STYLE('',(#326));
#192=EDGE_LOOP('',(#327,#328,#329,#330,#331,#332,#333,#334,#335,#336,#337,#338,#339,#340));
#193=AXIS2_PLACEMENT_3D('',#341,#342,#343);
#194=SURFACE_SIDE_STYLE('',(#344));
#196=SURFACE_STYLE_FILL_AREA(#345);
#197=ORIENTED_EDGE('',*,*,#346,.T.);
#198=ORIENTED_EDGE('',*,*,#347,.F.);
#199=ORIENTED_EDGE('',*,*,#348,.T.);
#200=ORIENTED_EDGE('',*,*,#349,.T.);
#201=CARTESIAN_POINT('',(0.0,-2.08502163,58.5));
#202=DIRECTION('',(0.0,0.0,1.0));
#203=DIRECTION('',(0.0,-1.0,0.0));
#204=SURFACE_STYLE_FILL_AREA(#350);
#205=ORIENTED_EDGE('',*,*,#351,.T.);
#206=ORIENTED_EDGE('',*,*,#352,.F.);
#207=ORIENTED_EDGE('',*,*,#353,.T.);
#208=ORIENTED_EDGE('',*,*,#347,.T.);
#209=CARTESIAN_POINT('',(0.0,-0.335,57.25));
#210=DIRECTION('',(0.0,0.965913556273921,0.258864833081411));
#211=DIRECTION('',(0.0,-0.258864833081411,0.965913556273921));
#212=SURFACE_STYLE_FILL_AREA(#354);
#213=ORIENTED_EDGE('',*,*,#355,.T.);
#214=ORIENTED_EDGE('',*,*,#356,.F.);
#215=ORIENTED_EDGE('',*,*,#357,.T.);
#216=ORIENTED_EDGE('',*,*,#352,.T.);
#217=CARTESIAN_POINT('',(0.0,0.0,0.0));
#218=DIRECTION('',(0.0,1.0,0.0));
#219=DIRECTION('',(0.0,0.0,1.0));
#220=SURFACE_STYLE_FILL_AREA(#358);
#221=ORIENTED_EDGE('',*,*,#359,.T.);
#222=ORIENTED_EDGE('',*,*,#360,.F.);
#223=ORIENTED_EDGE('',*,*,#361,.T.);
#224=ORIENTED_EDGE('',*,*,#356,.T.);
#225=CARTESIAN_POINT('',(0.0,-0.335,-57.25));
#226=DIRECTION('',(0.0,0.965913556273921,-0.258864833081411));
#227=DIRECTION('',(0.0,0.258864833081411,0.965913556273921));
#228=SURFACE_STYLE_FILL_AREA(#362);
#229=ORIENTED_EDGE('',*,*,#363,.T.);
#230=ORIENTED_EDGE('',*,*,#364,.F.);
#231=ORIENTED_EDGE('',*,*,#365,.T.);
#232=ORIENTED_EDGE('',*,*,#360,.T.);
#233=CARTESIAN_POINT('',(0.0,-2.08502163,-58.5));
#234=DIRECTION('',(0.0,0.0,-1.0));
#235=DIRECTION('',(0.0,1.0,0.0));
#236=SURFACE_STYLE_FILL_AREA(#366);
#237=ORIENTED_EDGE('',*,*,#367,.T.);
#238=ORIENTED_EDGE('',*,*,#368,.F.);
#239=ORIENTED_EDGE('',*,*,#369,.T.);
#240=ORIENTED_EDGE('',*,*,#364,.T.);
#241=CARTESIAN_POINT('',(0.0,-3.50004326,-52.75));
#242=DIRECTION('',(0.0,-1.0,0.0));
#243=DIRECTION('',(0.0,0.0,-1.0));
#244=SURFACE_STYLE_FILL_AREA(#370);
#245=ORIENTED_EDGE('',*,*,#371,.T.);
#246=ORIENTED_EDGE('',*,*,#372,.F.);
#247=ORIENTED_EDGE('',*,*,#373,.T.);
#248=ORIENTED_EDGE('',*,*,#368,.T.);
#249=CARTESIAN_POINT('',(0.0,-10.25004326,-47.0));
#250=DIRECTION('',(0.0,0.0,-1.0));
#251=DIRECTION('',(0.0,1.0,0.0));
#252=SURFACE_STYLE_FILL_AREA(#374);
#253=ORIENTED_EDGE('',*,*,#375,.T.);
#254=ORIENTED_EDGE('',*,*,#376,.F.);
#255=ORIENTED_EDGE('',*,*,#377,.T.);
#256=ORIENTED_EDGE('',*,*,#372,.T.);
#257=CARTESIAN_POINT('',(0.0,-17.00004326,-51.0));
#258=DIRECTION('',(0.0,1.0,0.0));
#259=DIRECTION('',(0.0,0.0,1.0));
#260=SURFACE_STYLE_FILL_AREA(#378);
#261=ORIENTED_EDGE('',*,*,#379,.T.);
#262=ORIENTED_EDGE('',*,*,#380,.F.);
#263=ORIENTED_EDGE('',*,*,#381,.T.);
#264=ORIENTED_EDGE('',*,*,#376,.T.);
#265=CARTESIAN_POINT('',(0.0,-19.00004326,-55.0));
#266=DIRECTION('',(0.0,0.0,-1.0));
#267=DIRECTION('',(0.0,1.0,0.0));
#268=SURFACE_STYLE_FILL_AREA(#382);
#269=ORIENTED_EDGE('',*,*,#383,.T.);
#270=ORIENTED_EDGE('',*,*,#384,.F.);
#271=ORIENTED_EDGE('',*,*,#385,.T.);
#272=ORIENTED_EDGE('',*,*,#380,.T.);
#273=CARTESIAN_POINT('',(0.0,-21.00004326,0.0));
#274=DIRECTION('',(0.0,-1.0,0.0));
#275=DIRECTION('',(0.0,0.0,-1.0));
#276=SURFACE_STYLE_FILL_AREA(#386);
#277=ORIENTED_EDGE('',*,*,#387,.T.);
#278=ORIENTED_EDGE('',*,*,#388,.F.);
#279=ORIENTED_EDGE('',*,*,#389,.T.);
#280=ORIENTED_EDGE('',*,*,#384,.T.);
#281=CARTESIAN_POINT('',(0.0,-19.00004326,55.0));
#282=DIRECTION('',(0.0,0.0,1.0));
#283=DIRECTION('',(0.0,-1.0,0.0));
#284=SURFACE_STYLE_FILL_AREA(#390);
#285=ORIENTED_EDGE('',*,*,#391,.T.);
#286=ORIENTED_EDGE('',*,*,#392,.F.);
#287=ORIENTED_EDGE('',*,*,#393,.T.);
#288=ORIENTED_EDGE('',*,*,#388,.T.);
#289=CARTESIAN_POINT('',(0.0,-17.00004326,51.0));
#290=DIRECTION('',(0.0,1.0,0.0));
#291=DIRECTION('',(0.0,0.0,1.0));
#292=SURFACE_STYLE_FILL_AREA(#394);
#293=ORIENTED_EDGE('',*,*,#395,.T.);
#294=ORIENTED_EDGE('',*,*,#396,.F.);
#295=ORIENTED_EDGE('',*,*,#397,.T.);
#296=ORIENTED_EDGE('',*,*,#392,.T.);
#297=CARTESIAN_POINT('',(0.0,-10.25004326,47.0));
#298=DIRECTION('',(0.0,0.0,1.0));
#299=DIRECTION('',(0.0,-1.0,0.0));
#300=SURFACE_STYLE_FILL_AREA(#398);
#301=ORIENTED_EDGE('',*,*,#399,.T.);
#302=ORIENTED_EDGE('',*,*,#349,.F.);
#303=ORIENTED_EDGE('',*,*,#400,.T.);
#304=ORIENTED_EDGE('',*,*,#396,.T.);
#305=CARTESIAN_POINT('',(0.0,-3.50004326,52.75));
#306=DIRECTION('',(0.0,-1.0,0.0));
#307=DIRECTION('',(0.0,0.0,-1.0));
#308=SURFACE_STYLE_FILL_AREA(#401);
#309=ORIENTED_EDGE('',*,*,#400,.F.);
#310=ORIENTED_EDGE('',*,*,#348,.F.);
#311=ORIENTED_EDGE('',*,*,#353,.F.);
#312=ORIENTED_EDGE('',*,*,#357,.F.);
#313=ORIENTED_EDGE('',*,*,#361,.F.);
#314=ORIENTED_EDGE('',*,*,#365,.F.);
#315=ORIENTED_EDGE('',*,*,#369,.F.);
#316=ORIENTED_EDGE('',*,*,#373,.F.);
#317=ORIENTED_EDGE('',*,*,#377,.F.);
#318=ORIENTED_EDGE('',*,*,#381,.F.);
#319=ORIENTED_EDGE('',*,*,#385,.F.);
#320=ORIENTED_EDGE('',*,*,#389,.F.);
#321=ORIENTED_EDGE('',*,*,#393,.F.);
#322=ORIENTED_EDGE('',*,*,#397,.F.);
#323=CARTESIAN_POINT('',(0.0,-10.1187216533115,-1.77635683940025E-15));
#324=DIRECTION('',(1.0,0.0,0.0));
#325=DIRECTION('',(0.0,0.0,-1.0));
#326=SURFACE_STYLE_FILL_AREA(#402);
#327=ORIENTED_EDGE('',*,*,#346,.F.);
#328=ORIENTED_EDGE('',*,*,#399,.F.);
#329=ORIENTED_EDGE('',*,*,#395,.F.);
#330=ORIENTED_EDGE('',*,*,#391,.F.);
#331=ORIENTED_EDGE('',*,*,#387,.F.);
#332=ORIENTED_EDGE('',*,*,#383,.F.);
#333=ORIENTED_EDGE('',*,*,#379,.F.);
#334=ORIENTED_EDGE('',*,*,#375,.F.);
#335=ORIENTED_EDGE('',*,*,#371,.F.);
#336=ORIENTED_EDGE('',*,*,#367,.F.);
#337=ORIENTED_EDGE('',*,*,#363,.F.);
#338=ORIENTED_EDGE('',*,*,#359,.F.);
#339=ORIENTED_EDGE('',*,*,#355,.F.);
#340=ORIENTED_EDGE('',*,*,#351,.F.);
#341=CARTESIAN_POINT('',(1000.0,-10.1187216533115,-1.11022302462516E-15));
#342=DIRECTION('',(1.0,0.0,0.0));
#343=DIRECTION('',(0.0,0.0,-1.0));
#344=SURFACE_STYLE_FILL_AREA(#403);
#345=FILL_AREA_STYLE('',(#404));
#346=EDGE_CURVE('',#405,#406,#407,.T.);
#347=EDGE_CURVE('',#408,#406,#409,.T.);
#348=EDGE_CURVE('',#408,#410,#411,.T.);
#349=EDGE_CURVE('',#410,#405,#412,.T.);
#350=FILL_AREA_STYLE('',(#413));
#351=EDGE_CURVE('',#406,#414,#415,.T.);
#352=EDGE_CURVE('',#416,#414,#417,.T.);
#353=EDGE_CURVE('',#416,#408,#418,.T.);
#354=FILL_AREA_STYLE('',(#419));
#355=EDGE_CURVE('',#414,#420,#421,.T.);
#356=EDGE_CURVE('',#422,#420,#423,.T.);
#357=EDGE_CURVE('',#422,#416,#424,.T.);
#358=FILL_AREA_STYLE('',(#425));
#359=EDGE_CURVE('',#420,#426,#427,.T.);
#360=EDGE_CURVE('',#428,#426,#429,.T.);
#361=EDGE_CURVE('',#428,#422,#430,.T.);
#362=FILL_AREA_STYLE('',(#431));
#363=EDGE_CURVE('',#426,#432,#433,.T.);
#364=EDGE_CURVE('',#434,#432,#435,.T.);
#365=EDGE_CURVE('',#434,#428,#436,.T.);
#366=FILL_AREA_STYLE('',(#437));
#367=EDGE_CURVE('',#432,#438,#439,.T.);
#368=EDGE_CURVE('',#440,#438,#441,.T.);
#369=EDGE_CURVE('',#440,#434,#442,.T.);
#370=FILL_AREA_STYLE('',(#443));
#371=EDGE_CURVE('',#438,#444,#445,.T.);
#372=EDGE_CURVE('',#446,#444,#447,.T.);
#373=EDGE_CURVE('',#446,#440,#448,.T.);
#374=FILL_AREA_STYLE('',(#449));
#375=EDGE_CURVE('',#444,#450,#451,.T.);
#376=EDGE_CURVE('',#452,#450,#453,.T.);
#377=EDGE_CURVE('',#452,#446,#454,.T.);
#378=FILL_AREA_STYLE('',(#455));
#379=EDGE_CURVE('',#450,#456,#457,.T.);
#380=EDGE_CURVE('',#458,#456,#459,.T.);
#381=EDGE_CURVE('',#458,#452,#460,.T.);
#382=FILL_AREA_STYLE('',(#461));
#383=EDGE_CURVE('',#456,#462,#463,.T.);
#384=EDGE_CURVE('',#464,#462,#465,.T.);
#385=EDGE_CURVE('',#464,#458,#466,.T.);
#386=FILL_AREA_STYLE('',(#467));
#387=EDGE_CURVE('',#462,#468,#469,.T.);
#388=EDGE_CURVE('',#470,#468,#471,.T.);
#389=EDGE_CURVE('',#470,#464,#472,.T.);
#390=FILL_AREA_STYLE('',(#473));
#391=EDGE_CURVE('',#468,#474,#475,.T.);
#392=EDGE_CURVE('',#476,#474,#477,.T.);
#393=EDGE_CURVE('',#476,#470,#478,.T.);
#394=FILL_AREA_STYLE('',(#479));
#395=EDGE_CURVE('',#474,#480,#481,.T.);
#396=EDGE_CURVE('',#482,#480,#483,.T.);
#397=EDGE_CURVE('',#482,#476,#484,.T.);
#398=FILL_AREA_STYLE('',(#485));
#399=EDGE_CURVE('',#480,#405,#486,.T.);
#400=EDGE_CURVE('',#410,#482,#487,.T.);
#401=FILL_AREA_STYLE('',(#488));
#402=FILL_AREA_STYLE('',(#489));
#403=FILL_AREA_STYLE('',(#490));
#404=FILL_AREA_STYLE_COLOUR('',#491);
#405=VERTEX_POINT('',#492);
#406=VERTEX_POINT('',#493);
#407=LINE('',#494,#495);
#408=VERTEX_POINT('',#496);
#409=LINE('',#497,#498);
#410=VERTEX_POINT('',#499);
#411=LINE('',#500,#501);
#412=LINE('',#502,#503);
#413=FILL_AREA_STYLE_COLOUR('',#504);
#414=VERTEX_POINT('',#505);
#415=LINE('',#506,#507);
#416=VERTEX_POINT('',#508);
#417=LINE('',#509,#510);
#418=LINE('',#511,#512);
#419=FILL_AREA_STYLE_COLOUR('',#513);
#420=VERTEX_POINT('',#514);
#421=LINE('',#515,#516);
#422=VERTEX_POINT('',#517);
#423=LINE('',#518,#519);
#424=LINE('',#520,#521);
#425=FILL_AREA_STYLE_COLOUR('',#522);
#426=VERTEX_POINT('',#523);
#427=LINE('',#524,#525);
#428=VERTEX_POINT('',#526);
#429=LINE('',#527,#528);
#430=LINE('',#529,#530);
#431=FILL_AREA_STYLE_COLOUR('',#531);
#432=VERTEX_POINT('',#532);
#433=LINE('',#533,#534);
#434=VERTEX_POINT('',#535);
#435=LINE('',#536,#537);
#436=LINE('',#538,#539);
#437=FILL_AREA_STYLE_COLOUR('',#540);
#438=VERTEX_POINT('',#541);
#439=LINE('',#542,#543);
#440=VERTEX_POINT('',#544);
#441=LINE('',#545,#546);
#442=LINE('',#547,#548);
#443=FILL_AREA_STYLE_COLOUR('',#549);
#444=VERTEX_POINT('',#550);
#445=LINE('',#551,#552);
#446=VERTEX_POINT('',#553);
#447=LINE('',#554,#555);
#448=LINE('',#556,#557);
#449=FILL_AREA_STYLE_COLOUR('',#558);
#450=VERTEX_POINT('',#559);
#451=LINE('',#560,#561);
#452=VERTEX_POINT('',#562);
#453=LINE('',#563,#564);
#454=LINE('',#565,#566);
#455=FILL_AREA_STYLE_COLOUR('',#567);
#456=VERTEX_POINT('',#568);
#457=LINE('',#569,#570);
#458=VERTEX_POINT('',#571);
#459=LINE('',#572,#573);
#460=LINE('',#574,#575);
#461=FILL_AREA_STYLE_COLOUR('',#576);
#462=VERTEX_POINT('',#577);
#463=LINE('',#578,#579);
#464=VERTEX_POINT('',#580);
#465=LINE('',#581,#582);
#466=LINE('',#583,#584);
#467=FILL_AREA_STYLE_COLOUR('',#585);
#468=VERTEX_POINT('',#586);
#469=LINE('',#587,#588);
#470=VERTEX_POINT('',#589);
#471=LINE('',#590,#591);
#472=LINE('',#592,#593);
#473=FILL_AREA_STYLE_COLOUR('',#594);
#474=VERTEX_POINT('',#595);
#475=LINE('',#596,#597);
#476=VERTEX_POINT('',#598);
#477=LINE('',#599,#600);
#478=LINE('',#601,#602);
#479=FILL_AREA_STYLE_COLOUR('',#603);
#480=VERTEX_POINT('',#604);
#481=LINE('',#605,#606);
#482=VERTEX_POINT('',#607);
#483=LINE('',#608,#609);
#484=LINE('',#610,#611);
#485=FILL_AREA_STYLE_COLOUR('',#612);
#486=LINE('',#613,#614);
#487=LINE('',#615,#616);
#488=FILL_AREA_STYLE_COLOUR('',#617);
#489=FILL_AREA_STYLE_COLOUR('',#618);
#490=FILL_AREA_STYLE_COLOUR('',#619);
#491=COLOUR_RGB('',0.509803950786591,0.509803950786591,0.588235318660736);
#492=CARTESIAN_POINT('',(1000.0,-3.50004326,58.5));
#493=CARTESIAN_POINT('',(1000.0,-0.67,58.5));
#494=CARTESIAN_POINT('',(1000.0,-0.67,58.5));
#495=VECTOR('',#620,1.0);
#496=CARTESIAN_POINT('',(0.0,-0.67,58.5));
#497=CARTESIAN_POINT('',(0.0,-0.67,58.5));
#498=VECTOR('',#621,1.0);
#499=CARTESIAN_POINT('',(0.0,-3.50004326,58.5));
#500=CARTESIAN_POINT('',(0.0,-0.67,58.5));
#501=VECTOR('',#622,1.0);
#502=CARTESIAN_POINT('',(0.0,-3.50004326,58.5));
#503=VECTOR('',#623,1.0);
#504=COLOUR_RGB('',0.509803950786591,0.509803950786591,0.588235318660736);
#505=CARTESIAN_POINT('',(1000.0,0.0,56.0));
#506=CARTESIAN_POINT('',(1000.0,0.0,56.0));
#507=VECTOR('',#624,1.0);
#508=CARTESIAN_POINT('',(0.0,0.0,56.0));
#509=CARTESIAN_POINT('',(0.0,0.0,56.0));
#510=VECTOR('',#625,1.0);
#511=CARTESIAN_POINT('',(0.0,0.0,56.0));
#512=VECTOR('',#626,1.0);
#513=COLOUR_RGB('',0.509803950786591,0.509803950786591,0.588235318660736);
#514=CARTESIAN_POINT('',(1000.0,1.11022302462516E-16,-56.0));
#515=CARTESIAN_POINT('',(1000.0,0.0,-56.0));
#516=VECTOR('',#627,1.0);
#517=CARTESIAN_POINT('',(0.0,1.11022302462516E-16,-56.0));
#518=CARTESIAN_POINT('',(0.0,1.11022302462516E-16,-56.0));
#519=VECTOR('',#628,1.0);
#520=CARTESIAN_POINT('',(0.0,0.0,-56.0));
#521=VECTOR('',#629,1.0);
#522=COLOUR_RGB('',0.509803950786591,0.509803950786591,0.588235318660736);
#523=CARTESIAN_POINT('',(1000.0,-0.67,-58.5));
#524=CARTESIAN_POINT('',(1000.0,-0.67,-58.5));
#525=VECTOR('',#630,1.0);
#526=CARTESIAN_POINT('',(0.0,-0.67,-58.5));
#527=CARTESIAN_POINT('',(0.0,-0.67,-58.5));
#528=VECTOR('',#631,1.0);
#529=CARTESIAN_POINT('',(0.0,-0.67,-58.5));
#530=VECTOR('',#632,1.0);
#531=COLOUR_RGB('',0.509803950786591,0.509803950786591,0.588235318660736);
#532=CARTESIAN_POINT('',(1000.0,-3.50004326,-58.5));
#533=CARTESIAN_POINT('',(1000.0,-3.50004326,-58.5));
#534=VECTOR('',#633,1.0);
#535=CARTESIAN_POINT('',(0.0,-3.50004326,-58.5));
#536=CARTESIAN_POINT('',(0.0,-3.50004326,-58.5));
#537=VECTOR('',#634,1.0);
#538=CARTESIAN_POINT('',(0.0,-3.50004326,-58.5));
#539=VECTOR('',#635,1.0);
#540=COLOUR_RGB('',0.509803950786591,0.509803950786591,0.588235318660736);
#541=CARTESIAN_POINT('',(1000.0,-3.50004326,-47.0));
#542=CARTESIAN_POINT('',(1000.0,-3.50004326,-47.0));
#543=VECTOR('',#636,1.0);
#544=CARTESIAN_POINT('',(0.0,-3.50004326,-47.0));
#545=CARTESIAN_POINT('',(0.0,-3.50004326,-47.0));
#546=VECTOR('',#637,1.0);
#547=CARTESIAN_POINT('',(0.0,-3.50004326,-47.0));
#548=VECTOR('',#638,1.0);
#549=COLOUR_RGB('',0.509803950786591,0.509803950786591,0.588235318660736);
#550=CARTESIAN_POINT('',(1000.0,-17.00004326,-47.0));
#551=CARTESIAN_POINT('',(1000.0,-17.00004326,-47.0));
#552=VECTOR('',#639,1.0);
#553=CARTESIAN_POINT('',(0.0,-17.00004326,-47.0));
#554=CARTESIAN_POINT('',(0.0,-17.00004326,-47.0));
#555=VECTOR('',#640,1.0);
#556=CARTESIAN_POINT('',(0.0,-17.00004326,-47.0));
#557=VECTOR('',#641,1.0);
#558=COLOUR_RGB('',0.509803950786591,0.509803950786591,0.588235318660736);
#559=CARTESIAN_POINT('',(1000.0,-17.00004326,-55.0));
#560=CARTESIAN_POINT('',(1000.0,-17.00004326,-55.0));
#561=VECTOR('',#642,1.0);
#562=CARTESIAN_POINT('',(0.0,-17.00004326,-55.0));
#563=CARTESIAN_POINT('',(0.0,-17.00004326,-55.0));
#564=VECTOR('',#643,1.0);
#565=CARTESIAN_POINT('',(0.0,-17.00004326,-55.0));
#566=VECTOR('',#644,1.0);
#567=COLOUR_RGB('',0.509803950786591,0.509803950786591,0.588235318660736);
#568=CARTESIAN_POINT('',(1000.0,-21.00004326,-55.0));
#569=CARTESIAN_POINT('',(1000.0,-21.00004326,-55.0));
#570=VECTOR('',#645,1.0);
#571=CARTESIAN_POINT('',(0.0,-21.00004326,-55.0));
#572=CARTESIAN_POINT('',(0.0,-21.00004326,-55.0));
#573=VECTOR('',#646,1.0);
#574=CARTESIAN_POINT('',(0.0,-21.00004326,-55.0));
#575=VECTOR('',#647,1.0);
#576=COLOUR_RGB('',0.509803950786591,0.509803950786591,0.588235318660736);
#577=CARTESIAN_POINT('',(1000.0,-21.00004326,55.0));
#578=CARTESIAN_POINT('',(1000.0,-21.00004326,55.0));
#579=VECTOR('',#648,1.0);
#580=CARTESIAN_POINT('',(0.0,-21.00004326,55.0));
#581=CARTESIAN_POINT('',(0.0,-21.00004326,55.0));
#582=VECTOR('',#649,1.0);
#583=CARTESIAN_POINT('',(0.0,-21.00004326,55.0));
#584=VECTOR('',#650,1.0);
#585=COLOUR_RGB('',0.509803950786591,0.509803950786591,0.588235318660736);
#586=CARTESIAN_POINT('',(1000.0,-17.00004326,55.0));
#587=CARTESIAN_POINT('',(1000.0,-17.00004326,55.0));
#588=VECTOR('',#651,1.0);
#589=CARTESIAN_POINT('',(0.0,-17.00004326,55.0));
#590=CARTESIAN_POINT('',(0.0,-17.00004326,55.0));
#591=VECTOR('',#652,1.0);
#592=CARTESIAN_POINT('',(0.0,-17.00004326,55.0));
#593=VECTOR('',#653,1.0);
#594=COLOUR_RGB('',0.509803950786591,0.509803950786591,0.588235318660736);
#595=CARTESIAN_POINT('',(1000.0,-17.00004326,47.0));
#596=CARTESIAN_POINT('',(1000.0,-17.00004326,47.0));
#597=VECTOR('',#654,1.0);
#598=CARTESIAN_POINT('',(0.0,-17.00004326,47.0));
#599=CARTESIAN_POINT('',(0.0,-17.00004326,47.0));
#600=VECTOR('',#655,1.0);
#601=CARTESIAN_POINT('',(0.0,-17.00004326,47.0));
#602=VECTOR('',#656,1.0);
#603=COLOUR_RGB('',0.509803950786591,0.509803950786591,0.588235318660736);
#604=CARTESIAN_POINT('',(1000.0,-3.50004326,47.0));
#605=CARTESIAN_POINT('',(1000.0,-3.50004326,47.0));
#606=VECTOR('',#657,1.0);
#607=CARTESIAN_POINT('',(0.0,-3.50004326,47.0));
#608=CARTESIAN_POINT('',(0.0,-3.50004326,47.0));
#609=VECTOR('',#658,1.0);
#610=CARTESIAN_POINT('',(0.0,-3.50004326,47.0));
#611=VECTOR('',#659,1.0);
#612=COLOUR_RGB('',0.509803950786591,0.509803950786591,0.588235318660736);
#613=CARTESIAN_POINT('',(1000.0,-3.50004326,58.5));
#614=VECTOR('',#660,1.0);
#615=CARTESIAN_POINT('',(0.0,-3.50004326,58.5));
#616=VECTOR('',#661,1.0);
#617=COLOUR_RGB('',0.509803950786591,0.509803950786591,0.588235318660736);
#618=COLOUR_RGB('',0.509803950786591,0.509803950786591,0.588235318660736);
#619=COLOUR_RGB('',0.509803950786591,0.509803950786591,0.588235318660736);
#620=DIRECTION('',(0.0,1.0,0.0));
#621=DIRECTION('',(1.0,0.0,0.0));
#622=DIRECTION('',(0.0,-1.0,0.0));
#623=DIRECTION('',(1.0,0.0,0.0));
#624=DIRECTION('',(0.0,0.258864833081411,-0.965913556273921));
#625=DIRECTION('',(1.0,0.0,0.0));
#626=DIRECTION('',(0.0,-0.258864833081411,0.965913556273921));
#627=DIRECTION('',(0.0,0.0,-1.0));
#628=DIRECTION('',(1.0,0.0,0.0));
#629=DIRECTION('',(0.0,0.0,1.0));
#630=DIRECTION('',(0.0,-0.258864833081411,-0.965913556273921));
#631=DIRECTION('',(1.0,0.0,0.0));
#632=DIRECTION('',(0.0,0.258864833081411,0.965913556273921));
#633=DIRECTION('',(-0.0,-1.0,0.0));
#634=DIRECTION('',(1.0,0.0,0.0));
#635=DIRECTION('',(0.0,1.0,0.0));
#636=DIRECTION('',(-0.0,0.0,1.0));
#637=DIRECTION('',(1.0,0.0,0.0));
#638=DIRECTION('',(0.0,0.0,-1.0));
#639=DIRECTION('',(-0.0,-1.0,0.0));
#640=DIRECTION('',(1.0,0.0,0.0));
#641=DIRECTION('',(0.0,1.0,0.0));
#642=DIRECTION('',(0.0,0.0,-1.0));
#643=DIRECTION('',(1.0,0.0,0.0));
#644=DIRECTION('',(0.0,0.0,1.0));
#645=DIRECTION('',(-0.0,-1.0,0.0));
#646=DIRECTION('',(1.0,0.0,0.0));
#647=DIRECTION('',(0.0,1.0,0.0));
#648=DIRECTION('',(-0.0,0.0,1.0));
#649=DIRECTION('',(1.0,0.0,0.0));
#650=DIRECTION('',(0.0,0.0,-1.0));
#651=DIRECTION('',(0.0,1.0,0.0));
#652=DIRECTION('',(1.0,0.0,0.0));
#653=DIRECTION('',(0.0,-1.0,0.0));
#654=DIRECTION('',(0.0,0.0,-1.0));
#655=DIRECTION('',(1.0,0.0,0.0));
#656=DIRECTION('',(0.0,0.0,1.0));
#657=DIRECTION('',(0.0,1.0,0.0));
#658=DIRECTION('',(1.0,0.0,0.0));
#659=DIRECTION('',(0.0,-1.0,0.0));
#660=DIRECTION('',(-0.0,0.0,1.0));
#661=DIRECTION('',(0.0,0.0,-1.0));
ENDSEC;
END-ISO-10303-21;
