ISO-10303-21;
HEADER;
FILE_DESCRIPTION(('STEP AP214'),'1');
FILE_NAME('cctmp_86D47B7D-91C8-4076-B799-F61F0917D971_2020_1_17_6_42_2_863..stp','2020-01-17T05:42:02',('Bosch Rexroth AG'),('CADClick - www.CADClick.com'),'Spatial InterOp 3D',' ','unknown authorization - (Healing Option Enabled)');
FILE_SCHEMA(('AUTOMOTIVE_DESIGN'));
ENDSEC;
DATA;
#1=MECHANICAL_DESIGN_GEOMETRIC_PRESENTATION_REPRESENTATION(' ',(#10,#11,#12,#13,#14,#15,#16,#17,#18,#19,#20,#21,#22,#23,#24,#25),#6);
#2=PRODUCT_DEFINITION_CONTEXT('',#26,'design');
#3=APPLICATION_PROTOCOL_DEFINITION('INTERNATIONAL STANDARD','automotive_design',1994,#26);
#4=PRODUCT_CATEGORY_RELATIONSHIP('NONE','NONE',#27,#28);
#5=SHAPE_DEFINITION_REPRESENTATION(#29,#30);
#6= (GEOMETRIC_REPRESENTATION_CONTEXT(3)GLOBAL_UNCERTAINTY_ASSIGNED_CONTEXT((#33))GLOBAL_UNIT_ASSIGNED_CONTEXT((#35,#36,#37))REPRESENTATION_CONTEXT('NONE','WORKSPACE'));
#10=STYLED_ITEM('',(#39),#40);
#11=STYLED_ITEM('',(#41),#42);
#12=STYLED_ITEM('',(#43),#44);
#13=STYLED_ITEM('',(#45),#46);
#14=STYLED_ITEM('',(#47),#48);
#15=STYLED_ITEM('',(#49),#50);
#16=STYLED_ITEM('',(#51),#52);
#17=STYLED_ITEM('',(#53),#54);
#18=STYLED_ITEM('',(#55),#56);
#19=STYLED_ITEM('',(#57),#58);
#20=STYLED_ITEM('',(#59),#60);
#21=STYLED_ITEM('',(#61),#62);
#22=STYLED_ITEM('',(#63),#64);
#23=STYLED_ITEM('',(#65),#66);
#24=STYLED_ITEM('',(#67),#68);
#25=STYLED_ITEM('',(#69),#70);
#26=APPLICATION_CONTEXT(' ');
#27=PRODUCT_CATEGORY('part','NONE');
#28=PRODUCT_RELATED_PRODUCT_CATEGORY('detail',' ',(#71));
#29=PRODUCT_DEFINITION_SHAPE('NONE','NONE',#72);
#30=ADVANCED_BREP_SHAPE_REPRESENTATION('2020_01_17__06-42-02-863',(#73,#74),#6);
#33=UNCERTAINTY_MEASURE_WITH_UNIT(LENGTH_MEASURE(1.0E-006),#35,'','');
#35= (CONVERSION_BASED_UNIT('MILLIMETRE',#77)LENGTH_UNIT()NAMED_UNIT(#80));
#36= (NAMED_UNIT(#82)PLANE_ANGLE_UNIT()SI_UNIT($,.RADIAN.));
#37= (NAMED_UNIT(#82)SOLID_ANGLE_UNIT()SI_UNIT($,.STERADIAN.));
#39=PRESENTATION_STYLE_ASSIGNMENT((#88));
#40=ADVANCED_FACE('',(#89),#90,.F.);
#41=PRESENTATION_STYLE_ASSIGNMENT((#91));
#42=ADVANCED_FACE('',(#92),#93,.T.);
#43=PRESENTATION_STYLE_ASSIGNMENT((#94));
#44=ADVANCED_FACE('',(#95),#96,.T.);
#45=PRESENTATION_STYLE_ASSIGNMENT((#97));
#46=ADVANCED_FACE('',(#98),#99,.F.);
#47=PRESENTATION_STYLE_ASSIGNMENT((#100));
#48=ADVANCED_FACE('',(#101),#102,.T.);
#49=PRESENTATION_STYLE_ASSIGNMENT((#103));
#50=ADVANCED_FACE('',(#104),#105,.F.);
#51=PRESENTATION_STYLE_ASSIGNMENT((#106));
#52=ADVANCED_FACE('',(#107),#108,.T.);
#53=PRESENTATION_STYLE_ASSIGNMENT((#109));
#54=ADVANCED_FACE('',(#110),#111,.T.);
#55=PRESENTATION_STYLE_ASSIGNMENT((#112));
#56=ADVANCED_FACE('',(#113),#114,.F.);
#57=PRESENTATION_STYLE_ASSIGNMENT((#115));
#58=ADVANCED_FACE('',(#116),#117,.T.);
#59=PRESENTATION_STYLE_ASSIGNMENT((#118));
#60=ADVANCED_FACE('',(#119),#120,.T.);
#61=PRESENTATION_STYLE_ASSIGNMENT((#121));
#62=ADVANCED_FACE('',(#122),#123,.T.);
#63=PRESENTATION_STYLE_ASSIGNMENT((#124));
#64=ADVANCED_FACE('',(#125),#126,.F.);
#65=PRESENTATION_STYLE_ASSIGNMENT((#127));
#66=ADVANCED_FACE('',(#128),#129,.F.);
#67=PRESENTATION_STYLE_ASSIGNMENT((#130));
#68=ADVANCED_FACE('',(#131),#132,.F.);
#69=PRESENTATION_STYLE_ASSIGNMENT((#133));
#70=ADVANCED_FACE('',(#134),#135,.T.);
#71=PRODUCT('2020_01_17__06-42-02-863','2020_01_17__06-42-02-863','PART-2020_01_17__06-42-02-863-DESC',(#136));
#72=PRODUCT_DEFINITION('','NONE',#137,#2);
#73=MANIFOLD_SOLID_BREP('2020_01_17__06-42-02-863',#138);
#74=AXIS2_PLACEMENT_3D('',#139,#140,#141);
#77=LENGTH_MEASURE_WITH_UNIT(LENGTH_MEASURE(1.0),#142);
#80=DIMENSIONAL_EXPONENTS(1.0,0.0,0.0,0.0,0.0,0.0,0.0);
#82=DIMENSIONAL_EXPONENTS(0.0,0.0,0.0,0.0,0.0,0.0,0.0);
#88=SURFACE_STYLE_USAGE(.BOTH.,#143);
#89=FACE_OUTER_BOUND('',#144,.T.);
#90=PLANE('',#145);
#91=SURFACE_STYLE_USAGE(.BOTH.,#146);
#92=FACE_OUTER_BOUND('',#147,.T.);
#93=PLANE('',#148);
#94=SURFACE_STYLE_USAGE(.BOTH.,#149);
#95=FACE_OUTER_BOUND('',#150,.T.);
#96=PLANE('',#151);
#97=SURFACE_STYLE_USAGE(.BOTH.,#152);
#98=FACE_OUTER_BOUND('',#153,.T.);
#99=PLANE('',#154);
#100=SURFACE_STYLE_USAGE(.BOTH.,#155);
#101=FACE_OUTER_BOUND('',#156,.T.);
#102=PLANE('',#157);
#103=SURFACE_STYLE_USAGE(.BOTH.,#158);
#104=FACE_OUTER_BOUND('',#159,.T.);
#105=PLANE('',#160);
#106=SURFACE_STYLE_USAGE(.BOTH.,#161);
#107=FACE_OUTER_BOUND('',#162,.T.);
#108=PLANE('',#163);
#109=SURFACE_STYLE_USAGE(.BOTH.,#164);
#110=FACE_OUTER_BOUND('',#165,.T.);
#111=PLANE('',#166);
#112=SURFACE_STYLE_USAGE(.BOTH.,#167);
#113=FACE_OUTER_BOUND('',#168,.T.);
#114=PLANE('',#169);
#115=SURFACE_STYLE_USAGE(.BOTH.,#170);
#116=FACE_OUTER_BOUND('',#171,.T.);
#117=PLANE('',#172);
#118=SURFACE_STYLE_USAGE(.BOTH.,#173);
#119=FACE_OUTER_BOUND('',#174,.T.);
#120=PLANE('',#175);
#121=SURFACE_STYLE_USAGE(.BOTH.,#176);
#122=FACE_OUTER_BOUND('',#177,.T.);
#123=PLANE('',#178);
#124=SURFACE_STYLE_USAGE(.BOTH.,#179);
#125=FACE_OUTER_BOUND('',#180,.T.);
#126=PLANE('',#181);
#127=SURFACE_STYLE_USAGE(.BOTH.,#182);
#128=FACE_OUTER_BOUND('',#183,.T.);
#129=PLANE('',#184);
#130=SURFACE_STYLE_USAGE(.BOTH.,#185);
#131=FACE_OUTER_BOUND('',#186,.T.);
#132=PLANE('',#187);
#133=SURFACE_STYLE_USAGE(.BOTH.,#188);
#134=FACE_OUTER_BOUND('',#189,.T.);
#135=PLANE('',#190);
#136=PRODUCT_CONTEXT('',#26,'mechanical');
#137=PRODUCT_DEFINITION_FORMATION_WITH_SPECIFIED_SOURCE(' ','NONE',#71,.NOT_KNOWN.);
#138=CLOSED_SHELL('',(#40,#42,#44,#46,#48,#50,#52,#54,#56,#58,#60,#62,#64,#66,#68,#70));
#139=CARTESIAN_POINT('',(0.0,0.0,0.0));
#140=DIRECTION('',(0.0,0.0,1.0));
#141=DIRECTION('',(1.0,0.0,0.0));
#142= (NAMED_UNIT(#80)LENGTH_UNIT()SI_UNIT(.MILLI.,.METRE.));
#143=SURFACE_SIDE_STYLE('',(#192));
#144=EDGE_LOOP('',(#193,#194,#195,#196));
#145=AXIS2_PLACEMENT_3D('',#197,#198,#199);
#146=SURFACE_SIDE_STYLE('',(#200));
#147=EDGE_LOOP('',(#201,#202,#203,#204,#205,#206,#207,#208));
#148=AXIS2_PLACEMENT_3D('',#209,#210,#211);
#149=SURFACE_SIDE_STYLE('',(#212));
#150=EDGE_LOOP('',(#213,#214,#215,#216));
#151=AXIS2_PLACEMENT_3D('',#217,#218,#219);
#152=SURFACE_SIDE_STYLE('',(#220));
#153=EDGE_LOOP('',(#221,#222,#223,#224,#225,#226));
#154=AXIS2_PLACEMENT_3D('',#227,#228,#229);
#155=SURFACE_SIDE_STYLE('',(#230));
#156=EDGE_LOOP('',(#231,#232,#233,#234));
#157=AXIS2_PLACEMENT_3D('',#235,#236,#237);
#158=SURFACE_SIDE_STYLE('',(#238));
#159=EDGE_LOOP('',(#239,#240,#241,#242,#243,#244,#245,#246,#247,#248));
#160=AXIS2_PLACEMENT_3D('',#249,#250,#251);
#161=SURFACE_SIDE_STYLE('',(#252));
#162=EDGE_LOOP('',(#253,#254,#255,#256));
#163=AXIS2_PLACEMENT_3D('',#257,#258,#259);
#164=SURFACE_SIDE_STYLE('',(#260));
#165=EDGE_LOOP('',(#261,#262,#263,#264,#265,#266,#267,#268));
#166=AXIS2_PLACEMENT_3D('',#269,#270,#271);
#167=SURFACE_SIDE_STYLE('',(#272));
#168=EDGE_LOOP('',(#273,#274,#275,#276));
#169=AXIS2_PLACEMENT_3D('',#277,#278,#279);
#170=SURFACE_SIDE_STYLE('',(#280));
#171=EDGE_LOOP('',(#281,#282,#283,#284));
#172=AXIS2_PLACEMENT_3D('',#285,#286,#287);
#173=SURFACE_SIDE_STYLE('',(#288));
#174=EDGE_LOOP('',(#289,#290,#291,#292,#293,#294,#295,#296));
#175=AXIS2_PLACEMENT_3D('',#297,#298,#299);
#176=SURFACE_SIDE_STYLE('',(#300));
#177=EDGE_LOOP('',(#301,#302,#303,#304));
#178=AXIS2_PLACEMENT_3D('',#305,#306,#307);
#179=SURFACE_SIDE_STYLE('',(#308));
#180=EDGE_LOOP('',(#309,#310,#311,#312));
#181=AXIS2_PLACEMENT_3D('',#313,#314,#315);
#182=SURFACE_SIDE_STYLE('',(#316));
#183=EDGE_LOOP('',(#317,#318,#319,#320));
#184=AXIS2_PLACEMENT_3D('',#321,#322,#323);
#185=SURFACE_SIDE_STYLE('',(#324));
#186=EDGE_LOOP('',(#325,#326,#327,#328));
#187=AXIS2_PLACEMENT_3D('',#329,#330,#331);
#188=SURFACE_SIDE_STYLE('',(#332));
#189=EDGE_LOOP('',(#333,#334,#335,#336));
#190=AXIS2_PLACEMENT_3D('',#337,#338,#339);
#192=SURFACE_STYLE_FILL_AREA(#340);
#193=ORIENTED_EDGE('',*,*,#341,.F.);
#194=ORIENTED_EDGE('',*,*,#342,.F.);
#195=ORIENTED_EDGE('',*,*,#343,.F.);
#196=ORIENTED_EDGE('',*,*,#344,.F.);
#197=CARTESIAN_POINT('',(0.0,8.69999999999993,-13.5));
#198=DIRECTION('',(0.0,-1.0,0.0));
#199=DIRECTION('',(0.0,0.0,-1.0));
#200=SURFACE_STYLE_FILL_AREA(#345);
#201=ORIENTED_EDGE('',*,*,#346,.F.);
#202=ORIENTED_EDGE('',*,*,#347,.T.);
#203=ORIENTED_EDGE('',*,*,#348,.F.);
#204=ORIENTED_EDGE('',*,*,#349,.F.);
#205=ORIENTED_EDGE('',*,*,#350,.F.);
#206=ORIENTED_EDGE('',*,*,#341,.T.);
#207=ORIENTED_EDGE('',*,*,#351,.T.);
#208=ORIENTED_EDGE('',*,*,#352,.F.);
#209=CARTESIAN_POINT('',(-15.0,8.69999999999993,3.0));
#210=DIRECTION('',(-1.0,0.0,0.0));
#211=DIRECTION('',(0.0,0.0,1.0));
#212=SURFACE_STYLE_FILL_AREA(#353);
#213=ORIENTED_EDGE('',*,*,#354,.F.);
#214=ORIENTED_EDGE('',*,*,#355,.F.);
#215=ORIENTED_EDGE('',*,*,#356,.F.);
#216=ORIENTED_EDGE('',*,*,#346,.T.);
#217=CARTESIAN_POINT('',(-14.5,-1.00000000000006,-13.8828638963225));
#218=DIRECTION('',(-0.707106781186547,-0.707106781186548,8.659275E-017));
#219=DIRECTION('',(-0.707106781186548,0.707106781186547,0.0));
#220=SURFACE_STYLE_FILL_AREA(#357);
#221=ORIENTED_EDGE('',*,*,#358,.T.);
#222=ORIENTED_EDGE('',*,*,#359,.F.);
#223=ORIENTED_EDGE('',*,*,#354,.T.);
#224=ORIENTED_EDGE('',*,*,#352,.T.);
#225=ORIENTED_EDGE('',*,*,#360,.T.);
#226=ORIENTED_EDGE('',*,*,#361,.F.);
#227=CARTESIAN_POINT('',(-15.0,-1.50000000000006,-27.76572779265));
#228=DIRECTION('',(4.48237E-017,0.500000000000017,0.866025403784429));
#229=DIRECTION('',(1.0,-8.9647399999997E-017,5.33729362479513E-033));
#230=SURFACE_STYLE_FILL_AREA(#362);
#231=ORIENTED_EDGE('',*,*,#363,.F.);
#232=ORIENTED_EDGE('',*,*,#364,.F.);
#233=ORIENTED_EDGE('',*,*,#358,.F.);
#234=ORIENTED_EDGE('',*,*,#365,.T.);
#235=CARTESIAN_POINT('',(14.5,-1.00000000000006,-13.8828638963225));
#236=DIRECTION('',(0.707106781186548,-0.707106781186547,-8.659275E-017));
#237=DIRECTION('',(0.0,1.22460641453183E-016,-1.0));
#238=SURFACE_STYLE_FILL_AREA(#366);
#239=ORIENTED_EDGE('',*,*,#363,.T.);
#240=ORIENTED_EDGE('',*,*,#367,.T.);
#241=ORIENTED_EDGE('',*,*,#368,.F.);
#242=ORIENTED_EDGE('',*,*,#369,.T.);
#243=ORIENTED_EDGE('',*,*,#370,.F.);
#244=ORIENTED_EDGE('',*,*,#371,.F.);
#245=ORIENTED_EDGE('',*,*,#372,.F.);
#246=ORIENTED_EDGE('',*,*,#347,.F.);
#247=ORIENTED_EDGE('',*,*,#356,.T.);
#248=ORIENTED_EDGE('',*,*,#373,.T.);
#249=CARTESIAN_POINT('',(-15.0,4.49999999999994,1.776357E-015));
#250=DIRECTION('',(0.0,0.0,-1.0));
#251=DIRECTION('',(0.0,-1.0,0.0));
#252=SURFACE_STYLE_FILL_AREA(#374);
#253=ORIENTED_EDGE('',*,*,#364,.T.);
#254=ORIENTED_EDGE('',*,*,#373,.F.);
#255=ORIENTED_EDGE('',*,*,#355,.T.);
#256=ORIENTED_EDGE('',*,*,#359,.T.);
#257=CARTESIAN_POINT('',(0.0,-1.50000000000006,-13.5));
#258=DIRECTION('',(0.0,-1.0,0.0));
#259=DIRECTION('',(0.0,0.0,-1.0));
#260=SURFACE_STYLE_FILL_AREA(#375);
#261=ORIENTED_EDGE('',*,*,#376,.F.);
#262=ORIENTED_EDGE('',*,*,#348,.T.);
#263=ORIENTED_EDGE('',*,*,#372,.T.);
#264=ORIENTED_EDGE('',*,*,#377,.T.);
#265=ORIENTED_EDGE('',*,*,#378,.T.);
#266=ORIENTED_EDGE('',*,*,#379,.T.);
#267=ORIENTED_EDGE('',*,*,#368,.T.);
#268=ORIENTED_EDGE('',*,*,#380,.F.);
#269=CARTESIAN_POINT('',(0.0,4.49999999999994,-13.5));
#270=DIRECTION('',(0.0,-1.0,0.0));
#271=DIRECTION('',(0.0,0.0,-1.0));
#272=SURFACE_STYLE_FILL_AREA(#381);
#273=ORIENTED_EDGE('',*,*,#376,.T.);
#274=ORIENTED_EDGE('',*,*,#382,.F.);
#275=ORIENTED_EDGE('',*,*,#383,.T.);
#276=ORIENTED_EDGE('',*,*,#349,.T.);
#277=CARTESIAN_POINT('',(-15.0,6.69999999999993,3.0));
#278=DIRECTION('',(-1.672843E-016,0.500000000000017,-0.866025403784429));
#279=DIRECTION('',(-1.0,0.0,1.93163271272398E-016));
#280=SURFACE_STYLE_FILL_AREA(#384);
#281=ORIENTED_EDGE('',*,*,#383,.F.);
#282=ORIENTED_EDGE('',*,*,#385,.F.);
#283=ORIENTED_EDGE('',*,*,#342,.T.);
#284=ORIENTED_EDGE('',*,*,#350,.T.);
#285=CARTESIAN_POINT('',(15.0,8.69999999999993,3.0));
#286=DIRECTION('',(0.0,0.0,1.0));
#287=DIRECTION('',(1.0,-0.0,0.0));
#288=SURFACE_STYLE_FILL_AREA(#386);
#289=ORIENTED_EDGE('',*,*,#365,.F.);
#290=ORIENTED_EDGE('',*,*,#361,.T.);
#291=ORIENTED_EDGE('',*,*,#387,.F.);
#292=ORIENTED_EDGE('',*,*,#343,.T.);
#293=ORIENTED_EDGE('',*,*,#385,.T.);
#294=ORIENTED_EDGE('',*,*,#382,.T.);
#295=ORIENTED_EDGE('',*,*,#380,.T.);
#296=ORIENTED_EDGE('',*,*,#367,.F.);
#297=CARTESIAN_POINT('',(15.0,8.69999999999993,-32.5));
#298=DIRECTION('',(1.0,0.0,0.0));
#299=DIRECTION('',(0.0,1.0,-0.0));
#300=SURFACE_STYLE_FILL_AREA(#388);
#301=ORIENTED_EDGE('',*,*,#360,.F.);
#302=ORIENTED_EDGE('',*,*,#351,.F.);
#303=ORIENTED_EDGE('',*,*,#344,.T.);
#304=ORIENTED_EDGE('',*,*,#387,.T.);
#305=CARTESIAN_POINT('',(-15.0,8.69999999999993,-32.5));
#306=DIRECTION('',(0.0,0.0,-1.0));
#307=DIRECTION('',(0.0,-1.0,0.0));
#308=SURFACE_STYLE_FILL_AREA(#389);
#309=ORIENTED_EDGE('',*,*,#369,.F.);
#310=ORIENTED_EDGE('',*,*,#379,.F.);
#311=ORIENTED_EDGE('',*,*,#390,.F.);
#312=ORIENTED_EDGE('',*,*,#391,.T.);
#313=CARTESIAN_POINT('',(13.25,8.69999999999993,-32.5));
#314=DIRECTION('',(1.0,0.0,0.0));
#315=DIRECTION('',(0.0,1.0,-0.0));
#316=SURFACE_STYLE_FILL_AREA(#392);
#317=ORIENTED_EDGE('',*,*,#370,.T.);
#318=ORIENTED_EDGE('',*,*,#391,.F.);
#319=ORIENTED_EDGE('',*,*,#393,.F.);
#320=ORIENTED_EDGE('',*,*,#394,.F.);
#321=CARTESIAN_POINT('',(0.0,1.49999999999994,-13.5));
#322=DIRECTION('',(0.0,-1.0,0.0));
#323=DIRECTION('',(0.0,0.0,-1.0));
#324=SURFACE_STYLE_FILL_AREA(#395);
#325=ORIENTED_EDGE('',*,*,#371,.T.);
#326=ORIENTED_EDGE('',*,*,#394,.T.);
#327=ORIENTED_EDGE('',*,*,#396,.T.);
#328=ORIENTED_EDGE('',*,*,#377,.F.);
#329=CARTESIAN_POINT('',(-13.25,8.69999999999993,3.0));
#330=DIRECTION('',(-1.0,0.0,0.0));
#331=DIRECTION('',(0.0,0.0,1.0));
#332=SURFACE_STYLE_FILL_AREA(#397);
#333=ORIENTED_EDGE('',*,*,#390,.T.);
#334=ORIENTED_EDGE('',*,*,#378,.F.);
#335=ORIENTED_EDGE('',*,*,#396,.F.);
#336=ORIENTED_EDGE('',*,*,#393,.T.);
#337=CARTESIAN_POINT('',(-15.0,-5.684342E-014,-25.16765158129));
#338=DIRECTION('',(4.48237E-017,0.500000000000017,0.866025403784429));
#339=DIRECTION('',(1.0,-8.9647399999997E-017,5.33729362479513E-033));
#340=FILL_AREA_STYLE('',(#398));
#341=EDGE_CURVE('',#399,#400,#401,.T.);
#342=EDGE_CURVE('',#402,#399,#403,.T.);
#343=EDGE_CURVE('',#404,#402,#405,.T.);
#344=EDGE_CURVE('',#400,#404,#406,.T.);
#345=FILL_AREA_STYLE('',(#407));
#346=EDGE_CURVE('',#408,#409,#410,.T.);
#347=EDGE_CURVE('',#408,#411,#412,.T.);
#348=EDGE_CURVE('',#413,#411,#414,.T.);
#349=EDGE_CURVE('',#415,#413,#416,.T.);
#350=EDGE_CURVE('',#399,#415,#417,.T.);
#351=EDGE_CURVE('',#400,#418,#419,.T.);
#352=EDGE_CURVE('',#409,#418,#420,.T.);
#353=FILL_AREA_STYLE('',(#421));
#354=EDGE_CURVE('',#422,#409,#423,.T.);
#355=EDGE_CURVE('',#424,#422,#425,.T.);
#356=EDGE_CURVE('',#408,#424,#426,.T.);
#357=FILL_AREA_STYLE('',(#427));
#358=EDGE_CURVE('',#428,#429,#430,.T.);
#359=EDGE_CURVE('',#422,#429,#431,.T.);
#360=EDGE_CURVE('',#418,#432,#433,.T.);
#361=EDGE_CURVE('',#428,#432,#434,.T.);
#362=FILL_AREA_STYLE('',(#435));
#363=EDGE_CURVE('',#436,#437,#438,.T.);
#364=EDGE_CURVE('',#429,#436,#439,.T.);
#365=EDGE_CURVE('',#428,#437,#440,.T.);
#366=FILL_AREA_STYLE('',(#441));
#367=EDGE_CURVE('',#437,#442,#443,.T.);
#368=EDGE_CURVE('',#444,#442,#445,.T.);
#369=EDGE_CURVE('',#444,#446,#447,.T.);
#370=EDGE_CURVE('',#448,#446,#449,.T.);
#371=EDGE_CURVE('',#450,#448,#451,.T.);
#372=EDGE_CURVE('',#411,#450,#452,.T.);
#373=EDGE_CURVE('',#424,#436,#453,.T.);
#374=FILL_AREA_STYLE('',(#454));
#375=FILL_AREA_STYLE('',(#455));
#376=EDGE_CURVE('',#413,#456,#457,.T.);
#377=EDGE_CURVE('',#450,#458,#459,.T.);
#378=EDGE_CURVE('',#458,#460,#461,.T.);
#379=EDGE_CURVE('',#460,#444,#462,.T.);
#380=EDGE_CURVE('',#456,#442,#463,.T.);
#381=FILL_AREA_STYLE('',(#464));
#382=EDGE_CURVE('',#465,#456,#466,.T.);
#383=EDGE_CURVE('',#465,#415,#467,.T.);
#384=FILL_AREA_STYLE('',(#468));
#385=EDGE_CURVE('',#402,#465,#469,.T.);
#386=FILL_AREA_STYLE('',(#470));
#387=EDGE_CURVE('',#404,#432,#471,.T.);
#388=FILL_AREA_STYLE('',(#472));
#389=FILL_AREA_STYLE('',(#473));
#390=EDGE_CURVE('',#474,#460,#475,.T.);
#391=EDGE_CURVE('',#474,#446,#476,.T.);
#392=FILL_AREA_STYLE('',(#477));
#393=EDGE_CURVE('',#478,#474,#479,.T.);
#394=EDGE_CURVE('',#448,#478,#480,.T.);
#395=FILL_AREA_STYLE('',(#481));
#396=EDGE_CURVE('',#478,#458,#482,.T.);
#397=FILL_AREA_STYLE('',(#483));
#398=FILL_AREA_STYLE_COLOUR('',#484);
#399=VERTEX_POINT('',#485);
#400=VERTEX_POINT('',#486);
#401=LINE('',#487,#488);
#402=VERTEX_POINT('',#489);
#403=LINE('',#490,#491);
#404=VERTEX_POINT('',#492);
#405=LINE('',#493,#494);
#406=LINE('',#495,#496);
#407=FILL_AREA_STYLE_COLOUR('',#497);
#408=VERTEX_POINT('',#498);
#409=VERTEX_POINT('',#499);
#410=LINE('',#500,#501);
#411=VERTEX_POINT('',#502);
#412=LINE('',#503,#504);
#413=VERTEX_POINT('',#505);
#414=LINE('',#506,#507);
#415=VERTEX_POINT('',#508);
#416=LINE('',#509,#510);
#417=LINE('',#511,#512);
#418=VERTEX_POINT('',#513);
#419=LINE('',#514,#515);
#420=LINE('',#516,#517);
#421=FILL_AREA_STYLE_COLOUR('',#518);
#422=VERTEX_POINT('',#519);
#423=LINE('',#520,#521);
#424=VERTEX_POINT('',#522);
#425=LINE('',#523,#524);
#426=LINE('',#525,#526);
#427=FILL_AREA_STYLE_COLOUR('',#527);
#428=VERTEX_POINT('',#528);
#429=VERTEX_POINT('',#529);
#430=LINE('',#530,#531);
#431=LINE('',#532,#533);
#432=VERTEX_POINT('',#534);
#433=LINE('',#535,#536);
#434=LINE('',#537,#538);
#435=FILL_AREA_STYLE_COLOUR('',#539);
#436=VERTEX_POINT('',#540);
#437=VERTEX_POINT('',#541);
#438=LINE('',#542,#543);
#439=LINE('',#544,#545);
#440=LINE('',#546,#547);
#441=FILL_AREA_STYLE_COLOUR('',#548);
#442=VERTEX_POINT('',#549);
#443=LINE('',#550,#551);
#444=VERTEX_POINT('',#552);
#445=LINE('',#553,#554);
#446=VERTEX_POINT('',#555);
#447=LINE('',#556,#557);
#448=VERTEX_POINT('',#558);
#449=LINE('',#559,#560);
#450=VERTEX_POINT('',#561);
#451=LINE('',#562,#563);
#452=LINE('',#564,#565);
#453=LINE('',#566,#567);
#454=FILL_AREA_STYLE_COLOUR('',#568);
#455=FILL_AREA_STYLE_COLOUR('',#569);
#456=VERTEX_POINT('',#570);
#457=LINE('',#571,#572);
#458=VERTEX_POINT('',#573);
#459=LINE('',#574,#575);
#460=VERTEX_POINT('',#576);
#461=LINE('',#577,#578);
#462=LINE('',#579,#580);
#463=LINE('',#581,#582);
#464=FILL_AREA_STYLE_COLOUR('',#583);
#465=VERTEX_POINT('',#584);
#466=LINE('',#585,#586);
#467=LINE('',#587,#588);
#468=FILL_AREA_STYLE_COLOUR('',#589);
#469=LINE('',#590,#591);
#470=FILL_AREA_STYLE_COLOUR('',#592);
#471=LINE('',#593,#594);
#472=FILL_AREA_STYLE_COLOUR('',#595);
#473=FILL_AREA_STYLE_COLOUR('',#596);
#474=VERTEX_POINT('',#597);
#475=LINE('',#598,#599);
#476=LINE('',#600,#601);
#477=FILL_AREA_STYLE_COLOUR('',#602);
#478=VERTEX_POINT('',#603);
#479=LINE('',#604,#605);
#480=LINE('',#606,#607);
#481=FILL_AREA_STYLE_COLOUR('',#608);
#482=LINE('',#609,#610);
#483=FILL_AREA_STYLE_COLOUR('',#611);
#484=COLOUR_RGB('',0.509803950786591,0.509803950786591,0.588235318660736);
#485=CARTESIAN_POINT('',(-15.0,8.69999999999993,3.0));
#486=CARTESIAN_POINT('',(-15.0,8.69999999999993,-32.5));
#487=CARTESIAN_POINT('',(-15.0,8.69999999999993,3.0));
#488=VECTOR('',#612,35.5);
#489=CARTESIAN_POINT('',(15.0,8.69999999999993,3.0));
#490=CARTESIAN_POINT('',(15.0,8.69999999999993,3.0));
#491=VECTOR('',#613,30.0);
#492=CARTESIAN_POINT('',(15.0,8.69999999999993,-32.5));
#493=CARTESIAN_POINT('',(15.0,8.69999999999993,-32.5));
#494=VECTOR('',#614,35.5);
#495=CARTESIAN_POINT('',(-15.0,8.69999999999993,-32.5));
#496=VECTOR('',#615,30.0);
#497=COLOUR_RGB('',0.509803950786591,0.509803950786591,0.588235318660736);
#498=CARTESIAN_POINT('',(-15.0,-0.500000000000057,1.776357E-015));
#499=CARTESIAN_POINT('',(-15.0,-0.500000000000057,-28.34307806183));
#500=CARTESIAN_POINT('',(-15.0,-0.500000000000057,1.776357E-015));
#501=VECTOR('',#616,28.34307806183);
#502=CARTESIAN_POINT('',(-15.0,4.49999999999994,1.776357E-015));
#503=CARTESIAN_POINT('',(-15.0,-0.500000000000057,1.776357E-015));
#504=VECTOR('',#617,5.0);
#505=CARTESIAN_POINT('',(-15.0,4.49999999999994,1.72982940778));
#506=CARTESIAN_POINT('',(-15.0,4.49999999999994,1.72982940778));
#507=VECTOR('',#618,1.72982940778);
#508=CARTESIAN_POINT('',(-15.0,6.69999999999993,3.0));
#509=CARTESIAN_POINT('',(-15.0,6.69999999999993,3.0));
#510=VECTOR('',#619,2.54034118443575);
#511=CARTESIAN_POINT('',(-15.0,8.69999999999993,3.0));
#512=VECTOR('',#620,2.0);
#513=CARTESIAN_POINT('',(-15.0,6.69999999999993,-32.5));
#514=CARTESIAN_POINT('',(-15.0,8.69999999999993,-32.5));
#515=VECTOR('',#621,2.0);
#516=CARTESIAN_POINT('',(-15.0,-0.500000000000057,-28.34307806183));
#517=VECTOR('',#622,8.31384387633295);
#518=COLOUR_RGB('',0.509803950786591,0.509803950786591,0.588235318660736);
#519=CARTESIAN_POINT('',(-14.0,-1.50000000000006,-27.76572779265));
#520=CARTESIAN_POINT('',(-14.0,-1.50000000000006,-27.76572779265));
#521=VECTOR('',#623,1.52752523164831);
#522=CARTESIAN_POINT('',(-14.0,-1.50000000000006,1.776357E-015));
#523=CARTESIAN_POINT('',(-14.0,-1.50000000000006,1.776357E-015));
#524=VECTOR('',#624,27.76572779265);
#525=CARTESIAN_POINT('',(-15.0,-0.500000000000057,1.776357E-015));
#526=VECTOR('',#625,1.41421356237309);
#527=COLOUR_RGB('',0.509803950786591,0.509803950786591,0.588235318660736);
#528=CARTESIAN_POINT('',(15.0,-0.500000000000057,-28.34307806183));
#529=CARTESIAN_POINT('',(14.0,-1.50000000000006,-27.76572779265));
#530=CARTESIAN_POINT('',(15.0,-0.500000000000057,-28.34307806183));
#531=VECTOR('',#626,1.52752523164831);
#532=CARTESIAN_POINT('',(-14.0,-1.50000000000006,-27.76572779265));
#533=VECTOR('',#627,28.0);
#534=CARTESIAN_POINT('',(15.0,6.69999999999993,-32.5));
#535=CARTESIAN_POINT('',(-15.0,6.69999999999993,-32.5));
#536=VECTOR('',#628,30.0);
#537=CARTESIAN_POINT('',(15.0,-0.500000000000057,-28.34307806183));
#538=VECTOR('',#629,8.31384387633295);
#539=COLOUR_RGB('',0.509803950786591,0.509803950786591,0.588235318660736);
#540=CARTESIAN_POINT('',(14.0,-1.50000000000006,-1.776357E-015));
#541=CARTESIAN_POINT('',(15.0,-0.500000000000057,-1.776357E-015));
#542=CARTESIAN_POINT('',(14.0,-1.50000000000006,-1.776357E-015));
#543=VECTOR('',#630,1.41421356237309);
#544=CARTESIAN_POINT('',(14.0,-1.50000000000006,-27.76572779265));
#545=VECTOR('',#631,27.76572779265);
#546=CARTESIAN_POINT('',(15.0,-0.500000000000057,-28.34307806183));
#547=VECTOR('',#632,28.34307806183);
#548=COLOUR_RGB('',0.509803950786591,0.509803950786591,0.588235318660736);
#549=CARTESIAN_POINT('',(15.0,4.49999999999994,-1.776357E-015));
#550=CARTESIAN_POINT('',(15.0,-0.500000000000057,-1.776357E-015));
#551=VECTOR('',#633,5.0);
#552=CARTESIAN_POINT('',(13.25,4.49999999999994,-1.776357E-015));
#553=CARTESIAN_POINT('',(13.25,4.49999999999994,-1.776357E-015));
#554=VECTOR('',#634,1.75);
#555=CARTESIAN_POINT('',(13.25,1.49999999999994,-1.776357E-015));
#556=CARTESIAN_POINT('',(13.25,4.49999999999994,-1.776357E-015));
#557=VECTOR('',#635,3.0);
#558=CARTESIAN_POINT('',(-13.25,1.49999999999994,1.776357E-015));
#559=CARTESIAN_POINT('',(-13.25,1.49999999999994,1.776357E-015));
#560=VECTOR('',#636,26.5);
#561=CARTESIAN_POINT('',(-13.25,4.49999999999994,1.776357E-015));
#562=CARTESIAN_POINT('',(-13.25,4.49999999999994,1.776357E-015));
#563=VECTOR('',#637,3.0);
#564=CARTESIAN_POINT('',(-15.0,4.49999999999994,1.776357E-015));
#565=VECTOR('',#638,1.75);
#566=CARTESIAN_POINT('',(-14.0,-1.50000000000006,1.776357E-015));
#567=VECTOR('',#639,28.0);
#568=COLOUR_RGB('',0.509803950786591,0.509803950786591,0.588235318660736);
#569=COLOUR_RGB('',0.509803950786591,0.509803950786591,0.588235318660736);
#570=CARTESIAN_POINT('',(15.0,4.49999999999994,1.72982940778));
#571=CARTESIAN_POINT('',(-15.0,4.49999999999994,1.72982940778));
#572=VECTOR('',#640,30.0);
#573=CARTESIAN_POINT('',(-13.25,4.49999999999994,-27.76572779265));
#574=CARTESIAN_POINT('',(-13.25,4.49999999999994,1.776357E-015));
#575=VECTOR('',#641,27.76572779265);
#576=CARTESIAN_POINT('',(13.25,4.49999999999994,-27.76572779265));
#577=CARTESIAN_POINT('',(-13.25,4.49999999999994,-27.76572779265));
#578=VECTOR('',#642,26.5);
#579=CARTESIAN_POINT('',(13.25,4.49999999999994,-27.76572779265));
#580=VECTOR('',#643,27.76572779265);
#581=CARTESIAN_POINT('',(15.0,4.49999999999994,1.72982940778));
#582=VECTOR('',#644,1.72982940778);
#583=COLOUR_RGB('',0.509803950786591,0.509803950786591,0.588235318660736);
#584=CARTESIAN_POINT('',(15.0,6.69999999999993,3.0));
#585=CARTESIAN_POINT('',(15.0,6.69999999999993,3.0));
#586=VECTOR('',#645,2.54034118443575);
#587=CARTESIAN_POINT('',(15.0,6.69999999999993,3.0));
#588=VECTOR('',#646,30.0);
#589=COLOUR_RGB('',0.509803950786591,0.509803950786591,0.588235318660736);
#590=CARTESIAN_POINT('',(15.0,8.69999999999993,3.0));
#591=VECTOR('',#647,2.0);
#592=COLOUR_RGB('',0.509803950786591,0.509803950786591,0.588235318660736);
#593=CARTESIAN_POINT('',(15.0,8.69999999999993,-32.5));
#594=VECTOR('',#648,2.0);
#595=COLOUR_RGB('',0.509803950786591,0.509803950786591,0.588235318660736);
#596=COLOUR_RGB('',0.509803950786591,0.509803950786591,0.588235318660736);
#597=CARTESIAN_POINT('',(13.25,1.49999999999994,-26.03367698508));
#598=CARTESIAN_POINT('',(13.25,1.49999999999994,-26.03367698508));
#599=VECTOR('',#649,3.46410161513832);
#600=CARTESIAN_POINT('',(13.25,1.49999999999994,-26.03367698508));
#601=VECTOR('',#650,26.03367698508);
#602=COLOUR_RGB('',0.509803950786591,0.509803950786591,0.588235318660736);
#603=CARTESIAN_POINT('',(-13.25,1.49999999999994,-26.03367698508));
#604=CARTESIAN_POINT('',(-13.25,1.49999999999994,-26.03367698508));
#605=VECTOR('',#651,26.5);
#606=CARTESIAN_POINT('',(-13.25,1.49999999999994,1.776357E-015));
#607=VECTOR('',#652,26.03367698508);
#608=COLOUR_RGB('',0.509803950786591,0.509803950786591,0.588235318660736);
#609=CARTESIAN_POINT('',(-13.25,1.49999999999994,-26.03367698508));
#610=VECTOR('',#653,3.46410161513832);
#611=COLOUR_RGB('',0.509803950786591,0.509803950786591,0.588235318660736);
#612=DIRECTION('',(0.0,0.0,-1.0));
#613=DIRECTION('',(-1.0,0.0,0.0));
#614=DIRECTION('',(0.0,0.0,1.0));
#615=DIRECTION('',(1.0,0.0,0.0));
#616=DIRECTION('',(0.0,0.0,-1.0));
#617=DIRECTION('',(0.0,1.0,0.0));
#618=DIRECTION('',(0.0,0.0,-1.0));
#619=DIRECTION('',(0.0,-0.866025403783957,-0.500000000000835));
#620=DIRECTION('',(0.0,-1.0,0.0));
#621=DIRECTION('',(0.0,-1.0,0.0));
#622=DIRECTION('',(0.0,0.866025403784194,-0.500000000000424));
#623=DIRECTION('',(-0.654653670709537,0.654653670709537,-0.377964473003825));
#624=DIRECTION('',(0.0,0.0,-1.0));
#625=DIRECTION('',(0.707106781186548,-0.707106781186548,0.0));
#626=DIRECTION('',(-0.654653670709537,-0.654653670709537,0.377964473003823));
#627=DIRECTION('',(1.0,0.0,0.0));
#628=DIRECTION('',(1.0,0.0,0.0));
#629=DIRECTION('',(0.0,0.866025403784194,-0.500000000000424));
#630=DIRECTION('',(0.707106781186548,0.707106781186548,0.0));
#631=DIRECTION('',(0.0,0.0,1.0));
#632=DIRECTION('',(0.0,0.0,1.0));
#633=DIRECTION('',(0.0,1.0,0.0));
#634=DIRECTION('',(1.0,0.0,0.0));
#635=DIRECTION('',(0.0,-1.0,0.0));
#636=DIRECTION('',(1.0,0.0,0.0));
#637=DIRECTION('',(0.0,-1.0,0.0));
#638=DIRECTION('',(1.0,0.0,0.0));
#639=DIRECTION('',(1.0,0.0,0.0));
#640=DIRECTION('',(1.0,0.0,0.0));
#641=DIRECTION('',(0.0,0.0,-1.0));
#642=DIRECTION('',(1.0,0.0,0.0));
#643=DIRECTION('',(0.0,0.0,1.0));
#644=DIRECTION('',(0.0,0.0,-1.0));
#645=DIRECTION('',(0.0,-0.866025403783957,-0.500000000000835));
#646=DIRECTION('',(-1.0,0.0,0.0));
#647=DIRECTION('',(0.0,-1.0,0.0));
#648=DIRECTION('',(0.0,-1.0,0.0));
#649=DIRECTION('',(0.0,0.866025403784298,-0.500000000000244));
#650=DIRECTION('',(0.0,0.0,1.0));
#651=DIRECTION('',(1.0,0.0,0.0));
#652=DIRECTION('',(0.0,0.0,-1.0));
#653=DIRECTION('',(0.0,0.866025403784298,-0.500000000000243));
ENDSEC;
END-ISO-10303-21;
