ISO-10303-21;
HEADER;
FILE_DESCRIPTION(('STEP AP214'),'1');
FILE_NAME('cctmp_E2B0C942-0313-4A4F-91B8-973E63F9F8D9_2020_1_17_6_40_36_297..stp','2020-01-17T05:40:36',('Bosch Rexroth AG'),('CADClick - www.CADClick.com'),'Spatial InterOp 3D',' ','unknown authorization - (Healing Option Enabled)');
FILE_SCHEMA(('AUTOMOTIVE_DESIGN'));
ENDSEC;
DATA;
#1=MECHANICAL_DESIGN_GEOMETRIC_PRESENTATION_REPRESENTATION(' ',(#11,#12,#13,#14,#15,#16,#17,#18,#19,#20),#7);
#2=PRODUCT_DEFINITION_CONTEXT('',#21,'design');
#3=APPLICATION_PROTOCOL_DEFINITION('INTERNATIONAL STANDARD','automotive_design',1994,#21);
#4=PRODUCT_CATEGORY_RELATIONSHIP('NONE','NONE',#22,#23);
#5=SHAPE_DEFINITION_REPRESENTATION(#24,#25);
#6=SHAPE_DEFINITION_REPRESENTATION(#24,#26);
#7= (GEOMETRIC_REPRESENTATION_CONTEXT(3)GLOBAL_UNCERTAINTY_ASSIGNED_CONTEXT((#29))GLOBAL_UNIT_ASSIGNED_CONTEXT((#31,#32,#33))REPRESENTATION_CONTEXT('NONE','WORKSPACE'));
#11=STYLED_ITEM('',(#35),#36);
#12=STYLED_ITEM('',(#37),#38);
#13=STYLED_ITEM('',(#39),#40);
#14=STYLED_ITEM('',(#41),#42);
#15=STYLED_ITEM('',(#43),#44);
#16=STYLED_ITEM('',(#45),#46);
#17=STYLED_ITEM('',(#47),#48);
#18=STYLED_ITEM('',(#49),#50);
#19=STYLED_ITEM('',(#51),#52);
#20=STYLED_ITEM('',(#53),#54);
#21=APPLICATION_CONTEXT(' ');
#22=PRODUCT_CATEGORY('part','NONE');
#23=PRODUCT_RELATED_PRODUCT_CATEGORY('detail',' ',(#55));
#24=PRODUCT_DEFINITION_SHAPE('NONE','NONE',#56);
#25=ADVANCED_BREP_SHAPE_REPRESENTATION('1',(#57,#58),#7);
#26=ADVANCED_BREP_SHAPE_REPRESENTATION('2',(#59,#60),#7);
#29=UNCERTAINTY_MEASURE_WITH_UNIT(LENGTH_MEASURE(1.0E-006),#31,'','');
#31= (CONVERSION_BASED_UNIT('MILLIMETRE',#63)LENGTH_UNIT()NAMED_UNIT(#66));
#32= (NAMED_UNIT(#68)PLANE_ANGLE_UNIT()SI_UNIT($,.RADIAN.));
#33= (NAMED_UNIT(#68)SOLID_ANGLE_UNIT()SI_UNIT($,.STERADIAN.));
#35=PRESENTATION_STYLE_ASSIGNMENT((#74));
#36=ADVANCED_FACE('',(#75),#76,.T.);
#37=PRESENTATION_STYLE_ASSIGNMENT((#77));
#38=ADVANCED_FACE('',(#78),#79,.F.);
#39=PRESENTATION_STYLE_ASSIGNMENT((#80));
#40=ADVANCED_FACE('',(#81),#82,.F.);
#41=PRESENTATION_STYLE_ASSIGNMENT((#83));
#42=ADVANCED_FACE('',(#84),#85,.T.);
#43=PRESENTATION_STYLE_ASSIGNMENT((#86));
#44=ADVANCED_FACE('',(#87,#88),#89,.T.);
#45=PRESENTATION_STYLE_ASSIGNMENT((#90));
#46=ADVANCED_FACE('',(#91,#92),#93,.F.);
#47=PRESENTATION_STYLE_ASSIGNMENT((#94));
#48=ADVANCED_FACE('',(#95),#96,.T.);
#49=PRESENTATION_STYLE_ASSIGNMENT((#97));
#50=ADVANCED_FACE('',(#98),#99,.T.);
#51=PRESENTATION_STYLE_ASSIGNMENT((#100));
#52=ADVANCED_FACE('',(#101),#102,.T.);
#53=PRESENTATION_STYLE_ASSIGNMENT((#103));
#54=ADVANCED_FACE('',(#104),#105,.F.);
#55=PRODUCT('1','','PART--DESC',(#106));
#56=PRODUCT_DEFINITION('','NONE',#107,#2);
#57=MANIFOLD_SOLID_BREP('2020_01_17__06-40-36-297',#108);
#58=AXIS2_PLACEMENT_3D('',#109,#110,#111);
#59=MANIFOLD_SOLID_BREP('2020_01_17__06-40-36-297',#112);
#60=AXIS2_PLACEMENT_3D('',#113,#114,#115);
#63=LENGTH_MEASURE_WITH_UNIT(LENGTH_MEASURE(1.0),#116);
#66=DIMENSIONAL_EXPONENTS(1.0,0.0,0.0,0.0,0.0,0.0,0.0);
#68=DIMENSIONAL_EXPONENTS(0.0,0.0,0.0,0.0,0.0,0.0,0.0);
#74=SURFACE_STYLE_USAGE(.BOTH.,#117);
#75=FACE_OUTER_BOUND('',#118,.T.);
#76=CYLINDRICAL_SURFACE('',#119,6.0);
#77=SURFACE_STYLE_USAGE(.BOTH.,#120);
#78=FACE_OUTER_BOUND('',#121,.T.);
#79=CYLINDRICAL_SURFACE('',#122,3.2);
#80=SURFACE_STYLE_USAGE(.BOTH.,#123);
#81=FACE_OUTER_BOUND('',#124,.T.);
#82=CYLINDRICAL_SURFACE('',#125,3.2);
#83=SURFACE_STYLE_USAGE(.BOTH.,#126);
#84=FACE_OUTER_BOUND('',#127,.T.);
#85=CYLINDRICAL_SURFACE('',#128,6.0);
#86=SURFACE_STYLE_USAGE(.BOTH.,#129);
#87=FACE_OUTER_BOUND('',#130,.T.);
#88=FACE_BOUND('',#131,.T.);
#89=PLANE('',#132);
#90=SURFACE_STYLE_USAGE(.BOTH.,#133);
#91=FACE_OUTER_BOUND('',#134,.T.);
#92=FACE_BOUND('',#135,.T.);
#93=PLANE('',#136);
#94=SURFACE_STYLE_USAGE(.BOTH.,#137);
#95=FACE_OUTER_BOUND('',#138,.T.);
#96=CYLINDRICAL_SURFACE('',#139,3.0);
#97=SURFACE_STYLE_USAGE(.BOTH.,#140);
#98=FACE_OUTER_BOUND('',#141,.T.);
#99=CYLINDRICAL_SURFACE('',#142,3.0);
#100=SURFACE_STYLE_USAGE(.BOTH.,#143);
#101=FACE_OUTER_BOUND('',#144,.T.);
#102=PLANE('',#145);
#103=SURFACE_STYLE_USAGE(.BOTH.,#146);
#104=FACE_OUTER_BOUND('',#147,.T.);
#105=PLANE('',#148);
#106=PRODUCT_CONTEXT('',#21,'mechanical');
#107=PRODUCT_DEFINITION_FORMATION_WITH_SPECIFIED_SOURCE(' ','NONE',#55,.NOT_KNOWN.);
#108=CLOSED_SHELL('',(#36,#38,#40,#42,#44,#46));
#109=CARTESIAN_POINT('',(0.0,0.0,0.0));
#110=DIRECTION('',(0.0,0.0,1.0));
#111=DIRECTION('',(1.0,0.0,0.0));
#112=CLOSED_SHELL('',(#48,#50,#52,#54));
#113=CARTESIAN_POINT('',(0.0,0.0,0.0));
#114=DIRECTION('',(0.0,0.0,1.0));
#115=DIRECTION('',(1.0,0.0,0.0));
#116= (NAMED_UNIT(#66)LENGTH_UNIT()SI_UNIT(.MILLI.,.METRE.));
#117=SURFACE_SIDE_STYLE('',(#150));
#118=EDGE_LOOP('',(#151,#152,#153,#154));
#119=AXIS2_PLACEMENT_3D('',#155,#156,#157);
#120=SURFACE_SIDE_STYLE('',(#158));
#121=EDGE_LOOP('',(#159,#160,#161,#162));
#122=AXIS2_PLACEMENT_3D('',#163,#164,#165);
#123=SURFACE_SIDE_STYLE('',(#166));
#124=EDGE_LOOP('',(#167,#168,#169,#170));
#125=AXIS2_PLACEMENT_3D('',#171,#172,#173);
#126=SURFACE_SIDE_STYLE('',(#174));
#127=EDGE_LOOP('',(#175,#176,#177,#178));
#128=AXIS2_PLACEMENT_3D('',#179,#180,#181);
#129=SURFACE_SIDE_STYLE('',(#182));
#130=EDGE_LOOP('',(#183,#184));
#131=EDGE_LOOP('',(#185,#186));
#132=AXIS2_PLACEMENT_3D('',#187,#188,#189);
#133=SURFACE_SIDE_STYLE('',(#190));
#134=EDGE_LOOP('',(#191,#192));
#135=EDGE_LOOP('',(#193,#194));
#136=AXIS2_PLACEMENT_3D('',#195,#196,#197);
#137=SURFACE_SIDE_STYLE('',(#198));
#138=EDGE_LOOP('',(#199,#200,#201,#202));
#139=AXIS2_PLACEMENT_3D('',#203,#204,#205);
#140=SURFACE_SIDE_STYLE('',(#206));
#141=EDGE_LOOP('',(#207,#208,#209,#210));
#142=AXIS2_PLACEMENT_3D('',#211,#212,#213);
#143=SURFACE_SIDE_STYLE('',(#214));
#144=EDGE_LOOP('',(#215,#216));
#145=AXIS2_PLACEMENT_3D('',#217,#218,#219);
#146=SURFACE_SIDE_STYLE('',(#220));
#147=EDGE_LOOP('',(#221,#222));
#148=AXIS2_PLACEMENT_3D('',#223,#224,#225);
#150=SURFACE_STYLE_FILL_AREA(#226);
#151=ORIENTED_EDGE('',*,*,#227,.F.);
#152=ORIENTED_EDGE('',*,*,#228,.T.);
#153=ORIENTED_EDGE('',*,*,#229,.T.);
#154=ORIENTED_EDGE('',*,*,#230,.T.);
#155=CARTESIAN_POINT('',(1.776357E-016,0.0,-0.799999999999955));
#156=DIRECTION('',(0.0,0.0,-1.0));
#157=DIRECTION('',(1.0,0.0,0.0));
#158=SURFACE_STYLE_FILL_AREA(#231);
#159=ORIENTED_EDGE('',*,*,#232,.F.);
#160=ORIENTED_EDGE('',*,*,#233,.F.);
#161=ORIENTED_EDGE('',*,*,#234,.T.);
#162=ORIENTED_EDGE('',*,*,#235,.F.);
#163=CARTESIAN_POINT('',(1.776357E-016,0.0,-0.799999999999955));
#164=DIRECTION('',(0.0,0.0,-1.0));
#165=DIRECTION('',(1.0,0.0,0.0));
#166=SURFACE_STYLE_FILL_AREA(#236);
#167=ORIENTED_EDGE('',*,*,#232,.T.);
#168=ORIENTED_EDGE('',*,*,#237,.F.);
#169=ORIENTED_EDGE('',*,*,#234,.F.);
#170=ORIENTED_EDGE('',*,*,#238,.F.);
#171=CARTESIAN_POINT('',(1.776357E-016,0.0,-0.799999999999955));
#172=DIRECTION('',(0.0,0.0,-1.0));
#173=DIRECTION('',(1.0,0.0,0.0));
#174=SURFACE_STYLE_FILL_AREA(#239);
#175=ORIENTED_EDGE('',*,*,#227,.T.);
#176=ORIENTED_EDGE('',*,*,#240,.T.);
#177=ORIENTED_EDGE('',*,*,#229,.F.);
#178=ORIENTED_EDGE('',*,*,#241,.T.);
#179=CARTESIAN_POINT('',(1.776357E-016,0.0,-0.799999999999955));
#180=DIRECTION('',(0.0,0.0,-1.0));
#181=DIRECTION('',(1.0,0.0,0.0));
#182=SURFACE_STYLE_FILL_AREA(#242);
#183=ORIENTED_EDGE('',*,*,#228,.F.);
#184=ORIENTED_EDGE('',*,*,#241,.F.);
#185=ORIENTED_EDGE('',*,*,#235,.T.);
#186=ORIENTED_EDGE('',*,*,#237,.T.);
#187=CARTESIAN_POINT('',(-1.776357E-016,0.0,0.799999999999955));
#188=DIRECTION('',(0.0,0.0,1.0));
#189=DIRECTION('',(1.0,-0.0,0.0));
#190=SURFACE_STYLE_FILL_AREA(#243);
#191=ORIENTED_EDGE('',*,*,#240,.F.);
#192=ORIENTED_EDGE('',*,*,#230,.F.);
#193=ORIENTED_EDGE('',*,*,#238,.T.);
#194=ORIENTED_EDGE('',*,*,#233,.T.);
#195=CARTESIAN_POINT('',(1.776357E-016,0.0,-0.799999999999955));
#196=DIRECTION('',(0.0,0.0,1.0));
#197=DIRECTION('',(1.0,-0.0,0.0));
#198=SURFACE_STYLE_FILL_AREA(#244);
#199=ORIENTED_EDGE('',*,*,#245,.F.);
#200=ORIENTED_EDGE('',*,*,#246,.T.);
#201=ORIENTED_EDGE('',*,*,#247,.T.);
#202=ORIENTED_EDGE('',*,*,#248,.T.);
#203=CARTESIAN_POINT('',(-1.487699E-014,0.0,35.0));
#204=DIRECTION('',(0.0,0.0,1.0));
#205=DIRECTION('',(-1.0,0.0,0.0));
#206=SURFACE_STYLE_FILL_AREA(#249);
#207=ORIENTED_EDGE('',*,*,#245,.T.);
#208=ORIENTED_EDGE('',*,*,#250,.T.);
#209=ORIENTED_EDGE('',*,*,#247,.F.);
#210=ORIENTED_EDGE('',*,*,#251,.T.);
#211=CARTESIAN_POINT('',(-1.487699E-014,0.0,35.0));
#212=DIRECTION('',(0.0,0.0,1.0));
#213=DIRECTION('',(-1.0,0.0,0.0));
#214=SURFACE_STYLE_FILL_AREA(#252);
#215=ORIENTED_EDGE('',*,*,#246,.F.);
#216=ORIENTED_EDGE('',*,*,#251,.F.);
#217=CARTESIAN_POINT('',(1.487699E-014,0.0,-35.0));
#218=DIRECTION('',(0.0,0.0,-1.0));
#219=DIRECTION('',(0.0,-1.0,0.0));
#220=SURFACE_STYLE_FILL_AREA(#253);
#221=ORIENTED_EDGE('',*,*,#250,.F.);
#222=ORIENTED_EDGE('',*,*,#248,.F.);
#223=CARTESIAN_POINT('',(-1.487699E-014,0.0,35.0));
#224=DIRECTION('',(0.0,0.0,-1.0));
#225=DIRECTION('',(0.0,-1.0,0.0));
#226=FILL_AREA_STYLE('',(#254));
#227=EDGE_CURVE('',#255,#256,#257,.T.);
#228=EDGE_CURVE('',#255,#258,#259,.T.);
#229=EDGE_CURVE('',#258,#260,#261,.T.);
#230=EDGE_CURVE('',#260,#256,#262,.T.);
#231=FILL_AREA_STYLE('',(#263));
#232=EDGE_CURVE('',#264,#265,#266,.T.);
#233=EDGE_CURVE('',#267,#264,#268,.T.);
#234=EDGE_CURVE('',#267,#269,#270,.T.);
#235=EDGE_CURVE('',#265,#269,#271,.T.);
#236=FILL_AREA_STYLE('',(#272));
#237=EDGE_CURVE('',#269,#265,#273,.T.);
#238=EDGE_CURVE('',#264,#267,#274,.T.);
#239=FILL_AREA_STYLE('',(#275));
#240=EDGE_CURVE('',#256,#260,#276,.T.);
#241=EDGE_CURVE('',#258,#255,#277,.T.);
#242=FILL_AREA_STYLE('',(#278));
#243=FILL_AREA_STYLE('',(#279));
#244=FILL_AREA_STYLE('',(#280));
#245=EDGE_CURVE('',#281,#282,#283,.T.);
#246=EDGE_CURVE('',#281,#284,#285,.T.);
#247=EDGE_CURVE('',#284,#286,#287,.T.);
#248=EDGE_CURVE('',#286,#282,#288,.T.);
#249=FILL_AREA_STYLE('',(#289));
#250=EDGE_CURVE('',#282,#286,#290,.T.);
#251=EDGE_CURVE('',#284,#281,#291,.T.);
#252=FILL_AREA_STYLE('',(#292));
#253=FILL_AREA_STYLE('',(#293));
#254=FILL_AREA_STYLE_COLOUR('',#294);
#255=VERTEX_POINT('',#295);
#256=VERTEX_POINT('',#296);
#257=LINE('',#297,#298);
#258=VERTEX_POINT('',#299);
#259=CIRCLE('',#300,6.0);
#260=VERTEX_POINT('',#301);
#261=LINE('',#302,#303);
#262=CIRCLE('',#304,6.0);
#263=FILL_AREA_STYLE_COLOUR('',#305);
#264=VERTEX_POINT('',#306);
#265=VERTEX_POINT('',#307);
#266=LINE('',#308,#309);
#267=VERTEX_POINT('',#310);
#268=CIRCLE('',#311,3.2);
#269=VERTEX_POINT('',#312);
#270=LINE('',#313,#314);
#271=CIRCLE('',#315,3.2);
#272=FILL_AREA_STYLE_COLOUR('',#316);
#273=CIRCLE('',#317,3.2);
#274=CIRCLE('',#318,3.2);
#275=FILL_AREA_STYLE_COLOUR('',#319);
#276=CIRCLE('',#320,6.0);
#277=CIRCLE('',#321,6.0);
#278=FILL_AREA_STYLE_COLOUR('',#322);
#279=FILL_AREA_STYLE_COLOUR('',#323);
#280=FILL_AREA_STYLE_COLOUR('',#324);
#281=VERTEX_POINT('',#325);
#282=VERTEX_POINT('',#326);
#283=LINE('',#327,#328);
#284=VERTEX_POINT('',#329);
#285=CIRCLE('',#330,3.0);
#286=VERTEX_POINT('',#331);
#287=LINE('',#332,#333);
#288=CIRCLE('',#334,3.0);
#289=FILL_AREA_STYLE_COLOUR('',#335);
#290=CIRCLE('',#336,3.0);
#291=CIRCLE('',#337,3.0);
#292=FILL_AREA_STYLE_COLOUR('',#338);
#293=FILL_AREA_STYLE_COLOUR('',#339);
#294=COLOUR_RGB('',0.509803950786591,0.509803950786591,0.588235318660736);
#295=CARTESIAN_POINT('',(6.0,0.0,0.799999999999956));
#296=CARTESIAN_POINT('',(6.0,0.0,-0.799999999999953));
#297=CARTESIAN_POINT('',(6.0,0.0,0.799999999999956));
#298=VECTOR('',#340,1.59999999999991);
#299=CARTESIAN_POINT('',(-6.0,-7.347638E-016,0.799999999999955));
#300=AXIS2_PLACEMENT_3D('',#341,#342,#343);
#301=CARTESIAN_POINT('',(-6.0,-7.347638E-016,-0.799999999999955));
#302=CARTESIAN_POINT('',(-6.0,-7.347638E-016,0.799999999999955));
#303=VECTOR('',#344,1.59999999999991);
#304=AXIS2_PLACEMENT_3D('',#345,#346,#347);
#305=COLOUR_RGB('',0.509803950786591,0.509803950786591,0.588235318660736);
#306=CARTESIAN_POINT('',(3.19999999999999,0.0,-0.799999999999954));
#307=CARTESIAN_POINT('',(3.19999999999999,0.0,0.799999999999955));
#308=CARTESIAN_POINT('',(3.19999999999999,0.0,-0.799999999999954));
#309=VECTOR('',#348,1.59999999999991);
#310=CARTESIAN_POINT('',(-3.2,-3.91874E-016,-0.799999999999955));
#311=AXIS2_PLACEMENT_3D('',#349,#350,#351);
#312=CARTESIAN_POINT('',(-3.2,-3.91874E-016,0.799999999999955));
#313=CARTESIAN_POINT('',(-3.2,-3.91874E-016,-0.799999999999955));
#314=VECTOR('',#352,1.59999999999991);
#315=AXIS2_PLACEMENT_3D('',#353,#354,#355);
#316=COLOUR_RGB('',0.509803950786591,0.509803950786591,0.588235318660736);
#317=AXIS2_PLACEMENT_3D('',#356,#357,#358);
#318=AXIS2_PLACEMENT_3D('',#359,#360,#361);
#319=COLOUR_RGB('',0.509803950786591,0.509803950786591,0.588235318660736);
#320=AXIS2_PLACEMENT_3D('',#362,#363,#364);
#321=AXIS2_PLACEMENT_3D('',#365,#366,#367);
#322=COLOUR_RGB('',0.509803950786591,0.509803950786591,0.588235318660736);
#323=COLOUR_RGB('',0.509803950786591,0.509803950786591,0.588235318660736);
#324=COLOUR_RGB('',0.509803950786591,0.509803950786591,0.588235318660736);
#325=CARTESIAN_POINT('',(-2.99999999999998,0.0,-35.0));
#326=CARTESIAN_POINT('',(-3.00000000000002,0.0,35.0));
#327=CARTESIAN_POINT('',(-2.99999999999998,0.0,-35.0));
#328=VECTOR('',#368,70.0);
#329=CARTESIAN_POINT('',(3.00000000000002,-3.673819E-016,-35.0));
#330=AXIS2_PLACEMENT_3D('',#369,#370,#371);
#331=CARTESIAN_POINT('',(2.99999999999998,-3.673819E-016,35.0));
#332=CARTESIAN_POINT('',(3.00000000000002,-3.673819E-016,-35.0));
#333=VECTOR('',#372,70.0);
#334=AXIS2_PLACEMENT_3D('',#373,#374,#375);
#335=COLOUR_RGB('',0.509803950786591,0.509803950786591,0.588235318660736);
#336=AXIS2_PLACEMENT_3D('',#376,#377,#378);
#337=AXIS2_PLACEMENT_3D('',#379,#380,#381);
#338=COLOUR_RGB('',0.509803950786591,0.509803950786591,0.588235318660736);
#339=COLOUR_RGB('',0.509803950786591,0.509803950786591,0.588235318660736);
#340=DIRECTION('',(0.0,0.0,-1.0));
#341=CARTESIAN_POINT('',(-1.776357E-016,0.0,0.799999999999955));
#342=DIRECTION('',(0.0,0.0,-1.0));
#343=DIRECTION('',(1.0,0.0,0.0));
#344=DIRECTION('',(0.0,0.0,-1.0));
#345=CARTESIAN_POINT('',(1.776357E-016,0.0,-0.799999999999955));
#346=DIRECTION('',(0.0,0.0,1.0));
#347=DIRECTION('',(1.0,0.0,0.0));
#348=DIRECTION('',(0.0,0.0,1.0));
#349=CARTESIAN_POINT('',(1.776357E-016,0.0,-0.799999999999955));
#350=DIRECTION('',(0.0,0.0,1.0));
#351=DIRECTION('',(1.0,0.0,0.0));
#352=DIRECTION('',(0.0,0.0,1.0));
#353=CARTESIAN_POINT('',(-1.776357E-016,0.0,0.799999999999955));
#354=DIRECTION('',(0.0,0.0,-1.0));
#355=DIRECTION('',(1.0,0.0,0.0));
#356=CARTESIAN_POINT('',(-1.776357E-016,0.0,0.799999999999955));
#357=DIRECTION('',(0.0,0.0,-1.0));
#358=DIRECTION('',(1.0,0.0,0.0));
#359=CARTESIAN_POINT('',(1.776357E-016,0.0,-0.799999999999955));
#360=DIRECTION('',(0.0,0.0,1.0));
#361=DIRECTION('',(1.0,0.0,0.0));
#362=CARTESIAN_POINT('',(1.776357E-016,0.0,-0.799999999999955));
#363=DIRECTION('',(0.0,0.0,1.0));
#364=DIRECTION('',(1.0,0.0,0.0));
#365=CARTESIAN_POINT('',(-1.776357E-016,0.0,0.799999999999955));
#366=DIRECTION('',(0.0,0.0,-1.0));
#367=DIRECTION('',(1.0,0.0,0.0));
#368=DIRECTION('',(0.0,0.0,1.0));
#369=CARTESIAN_POINT('',(1.487699E-014,0.0,-35.0));
#370=DIRECTION('',(0.0,0.0,1.0));
#371=DIRECTION('',(-1.0,0.0,0.0));
#372=DIRECTION('',(0.0,0.0,1.0));
#373=CARTESIAN_POINT('',(-1.487699E-014,0.0,35.0));
#374=DIRECTION('',(0.0,0.0,-1.0));
#375=DIRECTION('',(-1.0,0.0,0.0));
#376=CARTESIAN_POINT('',(-1.487699E-014,0.0,35.0));
#377=DIRECTION('',(0.0,0.0,-1.0));
#378=DIRECTION('',(-1.0,0.0,0.0));
#379=CARTESIAN_POINT('',(1.487699E-014,0.0,-35.0));
#380=DIRECTION('',(0.0,0.0,1.0));
#381=DIRECTION('',(-1.0,0.0,0.0));
ENDSEC;
END-ISO-10303-21;
