ISO-10303-21;
HEADER;
FILE_DESCRIPTION(('STEP AP214'),'1');
FILE_NAME('cctmp_094CAA4F-7CDC-4640-A89B-FECF7949447D_2020_1_17_6_21_38_999..stp','2020-01-17T05:21:39',('Bosch Rexroth AG'),('CADClick - www.CADClick.com'),'Spatial InterOp 3D',' ','unknown authorization - (Healing Option Enabled)');
FILE_SCHEMA(('AUTOMOTIVE_DESIGN'));
ENDSEC;
DATA;
#1=MECHANICAL_DESIGN_GEOMETRIC_PRESENTATION_REPRESENTATION(' ',(#11,#12,#13,#14,#15,#16,#17,#18,#19,#20,#21,#22,#23,#24,#25,#26,#27,#28,#29,#30),#7);
#2=PRODUCT_DEFINITION_CONTEXT('',#31,'design');
#3=APPLICATION_PROTOCOL_DEFINITION('INTERNATIONAL STANDARD','automotive_design',1994,#31);
#4=PRODUCT_CATEGORY_RELATIONSHIP('NONE','NONE',#32,#33);
#5=SHAPE_DEFINITION_REPRESENTATION(#34,#35);
#6=SHAPE_DEFINITION_REPRESENTATION(#34,#36);
#7= (GEOMETRIC_REPRESENTATION_CONTEXT(3)GLOBAL_UNCERTAINTY_ASSIGNED_CONTEXT((#39))GLOBAL_UNIT_ASSIGNED_CONTEXT((#41,#42,#43))REPRESENTATION_CONTEXT('NONE','WORKSPACE'));
#11=STYLED_ITEM('',(#45),#46);
#12=STYLED_ITEM('',(#47),#48);
#13=STYLED_ITEM('',(#49),#50);
#14=STYLED_ITEM('',(#51),#52);
#15=STYLED_ITEM('',(#53),#54);
#16=STYLED_ITEM('',(#55),#56);
#17=STYLED_ITEM('',(#57),#58);
#18=STYLED_ITEM('',(#59),#60);
#19=STYLED_ITEM('',(#61),#62);
#20=STYLED_ITEM('',(#63),#64);
#21=STYLED_ITEM('',(#65),#66);
#22=STYLED_ITEM('',(#67),#68);
#23=STYLED_ITEM('',(#69),#70);
#24=STYLED_ITEM('',(#71),#72);
#25=STYLED_ITEM('',(#73),#74);
#26=STYLED_ITEM('',(#75),#76);
#27=STYLED_ITEM('',(#77),#78);
#28=STYLED_ITEM('',(#79),#80);
#29=STYLED_ITEM('',(#81),#82);
#30=STYLED_ITEM('',(#83),#84);
#31=APPLICATION_CONTEXT(' ');
#32=PRODUCT_CATEGORY('part','NONE');
#33=PRODUCT_RELATED_PRODUCT_CATEGORY('detail',' ',(#85));
#34=PRODUCT_DEFINITION_SHAPE('NONE','NONE',#86);
#35=ADVANCED_BREP_SHAPE_REPRESENTATION('1',(#82,#87),#7);
#36=ADVANCED_BREP_SHAPE_REPRESENTATION('2',(#84,#88),#7);
#39=UNCERTAINTY_MEASURE_WITH_UNIT(LENGTH_MEASURE(1.0E-006),#41,'','');
#41= (CONVERSION_BASED_UNIT('MILLIMETRE',#91)LENGTH_UNIT()NAMED_UNIT(#94));
#42= (NAMED_UNIT(#96)PLANE_ANGLE_UNIT()SI_UNIT($,.RADIAN.));
#43= (NAMED_UNIT(#96)SOLID_ANGLE_UNIT()SI_UNIT($,.STERADIAN.));
#45=PRESENTATION_STYLE_ASSIGNMENT((#102));
#46=ADVANCED_FACE('',(#103),#104,.T.);
#47=PRESENTATION_STYLE_ASSIGNMENT((#105));
#48=ADVANCED_FACE('',(#106),#107,.F.);
#49=PRESENTATION_STYLE_ASSIGNMENT((#108));
#50=ADVANCED_FACE('',(#109),#110,.T.);
#51=PRESENTATION_STYLE_ASSIGNMENT((#111));
#52=ADVANCED_FACE('',(#112),#113,.T.);
#53=PRESENTATION_STYLE_ASSIGNMENT((#114));
#54=ADVANCED_FACE('',(#115),#116,.F.);
#55=PRESENTATION_STYLE_ASSIGNMENT((#117));
#56=ADVANCED_FACE('',(#118),#119,.T.);
#57=PRESENTATION_STYLE_ASSIGNMENT((#120));
#58=ADVANCED_FACE('',(#121),#122,.T.);
#59=PRESENTATION_STYLE_ASSIGNMENT((#123));
#60=ADVANCED_FACE('',(#124),#125,.T.);
#61=PRESENTATION_STYLE_ASSIGNMENT((#126));
#62=ADVANCED_FACE('',(#127),#128,.T.);
#63=PRESENTATION_STYLE_ASSIGNMENT((#129));
#64=ADVANCED_FACE('',(#130),#131,.T.);
#65=PRESENTATION_STYLE_ASSIGNMENT((#132));
#66=ADVANCED_FACE('',(#133),#134,.T.);
#67=PRESENTATION_STYLE_ASSIGNMENT((#135));
#68=ADVANCED_FACE('',(#136),#137,.F.);
#69=PRESENTATION_STYLE_ASSIGNMENT((#138));
#70=ADVANCED_FACE('',(#139),#140,.F.);
#71=PRESENTATION_STYLE_ASSIGNMENT((#141));
#72=ADVANCED_FACE('',(#142),#143,.T.);
#73=PRESENTATION_STYLE_ASSIGNMENT((#144));
#74=ADVANCED_FACE('',(#145),#146,.T.);
#75=PRESENTATION_STYLE_ASSIGNMENT((#147));
#76=ADVANCED_FACE('',(#148),#149,.T.);
#77=PRESENTATION_STYLE_ASSIGNMENT((#150));
#78=ADVANCED_FACE('',(#151),#152,.T.);
#79=PRESENTATION_STYLE_ASSIGNMENT((#153));
#80=ADVANCED_FACE('',(#154),#155,.T.);
#81=PRESENTATION_STYLE_ASSIGNMENT((#156));
#82=MANIFOLD_SOLID_BREP('2020_01_17__06-21-38-999',#157);
#83=PRESENTATION_STYLE_ASSIGNMENT((#158));
#84=MANIFOLD_SOLID_BREP('2020_01_17__06-21-38-999',#159);
#85=PRODUCT('1','','PART--DESC',(#160));
#86=PRODUCT_DEFINITION('','NONE',#161,#2);
#87=AXIS2_PLACEMENT_3D('',#162,#163,#164);
#88=AXIS2_PLACEMENT_3D('',#165,#166,#167);
#91=LENGTH_MEASURE_WITH_UNIT(LENGTH_MEASURE(1.0),#168);
#94=DIMENSIONAL_EXPONENTS(1.0,0.0,0.0,0.0,0.0,0.0,0.0);
#96=DIMENSIONAL_EXPONENTS(0.0,0.0,0.0,0.0,0.0,0.0,0.0);
#102=SURFACE_STYLE_USAGE(.BOTH.,#169);
#103=FACE_OUTER_BOUND('',#170,.T.);
#104=PLANE('',#171);
#105=SURFACE_STYLE_USAGE(.BOTH.,#172);
#106=FACE_OUTER_BOUND('',#173,.T.);
#107=CYLINDRICAL_SURFACE('',#174,13.75);
#108=SURFACE_STYLE_USAGE(.BOTH.,#175);
#109=FACE_OUTER_BOUND('',#176,.T.);
#110=PLANE('',#177);
#111=SURFACE_STYLE_USAGE(.BOTH.,#178);
#112=FACE_OUTER_BOUND('',#179,.T.);
#113=PLANE('',#180);
#114=SURFACE_STYLE_USAGE(.BOTH.,#181);
#115=FACE_OUTER_BOUND('',#182,.T.);
#116=PLANE('',#183);
#117=SURFACE_STYLE_USAGE(.BOTH.,#184);
#118=FACE_OUTER_BOUND('',#185,.T.);
#119=PLANE('',#186);
#120=SURFACE_STYLE_USAGE(.BOTH.,#187);
#121=FACE_OUTER_BOUND('',#188,.T.);
#122=PLANE('',#189);
#123=SURFACE_STYLE_USAGE(.BOTH.,#190);
#124=FACE_OUTER_BOUND('',#191,.T.);
#125=PLANE('',#192);
#126=SURFACE_STYLE_USAGE(.BOTH.,#193);
#127=FACE_OUTER_BOUND('',#194,.T.);
#128=PLANE('',#195);
#129=SURFACE_STYLE_USAGE(.BOTH.,#196);
#130=FACE_OUTER_BOUND('',#197,.T.);
#131=PLANE('',#198);
#132=SURFACE_STYLE_USAGE(.BOTH.,#199);
#133=FACE_OUTER_BOUND('',#200,.T.);
#134=PLANE('',#201);
#135=SURFACE_STYLE_USAGE(.BOTH.,#202);
#136=FACE_OUTER_BOUND('',#203,.T.);
#137=CYLINDRICAL_SURFACE('',#204,13.75);
#138=SURFACE_STYLE_USAGE(.BOTH.,#205);
#139=FACE_OUTER_BOUND('',#206,.T.);
#140=PLANE('',#207);
#141=SURFACE_STYLE_USAGE(.BOTH.,#208);
#142=FACE_OUTER_BOUND('',#209,.T.);
#143=PLANE('',#210);
#144=SURFACE_STYLE_USAGE(.BOTH.,#211);
#145=FACE_OUTER_BOUND('',#212,.T.);
#146=PLANE('',#213);
#147=SURFACE_STYLE_USAGE(.BOTH.,#214);
#148=FACE_OUTER_BOUND('',#215,.T.);
#149=PLANE('',#216);
#150=SURFACE_STYLE_USAGE(.BOTH.,#217);
#151=FACE_OUTER_BOUND('',#218,.T.);
#152=PLANE('',#219);
#153=SURFACE_STYLE_USAGE(.BOTH.,#220);
#154=FACE_OUTER_BOUND('',#221,.T.);
#155=PLANE('',#222);
#156=SURFACE_STYLE_USAGE(.BOTH.,#223);
#157=CLOSED_SHELL('',(#46,#48,#50,#52,#54,#56,#58,#60,#62));
#158=SURFACE_STYLE_USAGE(.BOTH.,#224);
#159=CLOSED_SHELL('',(#64,#66,#68,#70,#72,#74,#76,#78,#80));
#160=PRODUCT_CONTEXT('',#31,'mechanical');
#161=PRODUCT_DEFINITION_FORMATION_WITH_SPECIFIED_SOURCE(' ','NONE',#85,.NOT_KNOWN.);
#162=CARTESIAN_POINT('',(0.0,0.0,0.0));
#163=DIRECTION('',(0.0,0.0,1.0));
#164=DIRECTION('',(1.0,0.0,0.0));
#165=CARTESIAN_POINT('',(0.0,0.0,0.0));
#166=DIRECTION('',(0.0,0.0,1.0));
#167=DIRECTION('',(1.0,0.0,0.0));
#168= (NAMED_UNIT(#94)LENGTH_UNIT()SI_UNIT(.MILLI.,.METRE.));
#169=SURFACE_SIDE_STYLE('',(#226));
#170=EDGE_LOOP('',(#227,#228,#229,#230));
#171=AXIS2_PLACEMENT_3D('',#231,#232,#233);
#172=SURFACE_SIDE_STYLE('',(#234));
#173=EDGE_LOOP('',(#235,#236,#237,#238));
#174=AXIS2_PLACEMENT_3D('',#239,#240,#241);
#175=SURFACE_SIDE_STYLE('',(#242));
#176=EDGE_LOOP('',(#243,#244,#245,#246,#247,#248,#249));
#177=AXIS2_PLACEMENT_3D('',#250,#251,#252);
#178=SURFACE_SIDE_STYLE('',(#253));
#179=EDGE_LOOP('',(#254,#255,#256,#257));
#180=AXIS2_PLACEMENT_3D('',#258,#259,#260);
#181=SURFACE_SIDE_STYLE('',(#261));
#182=EDGE_LOOP('',(#262,#263,#264,#265,#266,#267,#268));
#183=AXIS2_PLACEMENT_3D('',#269,#270,#271);
#184=SURFACE_SIDE_STYLE('',(#272));
#185=EDGE_LOOP('',(#273,#274,#275,#276));
#186=AXIS2_PLACEMENT_3D('',#277,#278,#279);
#187=SURFACE_SIDE_STYLE('',(#280));
#188=EDGE_LOOP('',(#281,#282,#283,#284));
#189=AXIS2_PLACEMENT_3D('',#285,#286,#287);
#190=SURFACE_SIDE_STYLE('',(#288));
#191=EDGE_LOOP('',(#289,#290,#291,#292));
#192=AXIS2_PLACEMENT_3D('',#293,#294,#295);
#193=SURFACE_SIDE_STYLE('',(#296));
#194=EDGE_LOOP('',(#297,#298,#299,#300));
#195=AXIS2_PLACEMENT_3D('',#301,#302,#303);
#196=SURFACE_SIDE_STYLE('',(#304));
#197=EDGE_LOOP('',(#305,#306,#307,#308));
#198=AXIS2_PLACEMENT_3D('',#309,#310,#311);
#199=SURFACE_SIDE_STYLE('',(#312));
#200=EDGE_LOOP('',(#313,#314,#315,#316,#317,#318,#319));
#201=AXIS2_PLACEMENT_3D('',#320,#321,#322);
#202=SURFACE_SIDE_STYLE('',(#323));
#203=EDGE_LOOP('',(#324,#325,#326,#327));
#204=AXIS2_PLACEMENT_3D('',#328,#329,#330);
#205=SURFACE_SIDE_STYLE('',(#331));
#206=EDGE_LOOP('',(#332,#333,#334,#335,#336,#337,#338));
#207=AXIS2_PLACEMENT_3D('',#339,#340,#341);
#208=SURFACE_SIDE_STYLE('',(#342));
#209=EDGE_LOOP('',(#343,#344,#345,#346));
#210=AXIS2_PLACEMENT_3D('',#347,#348,#349);
#211=SURFACE_SIDE_STYLE('',(#350));
#212=EDGE_LOOP('',(#351,#352,#353,#354));
#213=AXIS2_PLACEMENT_3D('',#355,#356,#357);
#214=SURFACE_SIDE_STYLE('',(#358));
#215=EDGE_LOOP('',(#359,#360,#361,#362));
#216=AXIS2_PLACEMENT_3D('',#363,#364,#365);
#217=SURFACE_SIDE_STYLE('',(#366));
#218=EDGE_LOOP('',(#367,#368,#369,#370));
#219=AXIS2_PLACEMENT_3D('',#371,#372,#373);
#220=SURFACE_SIDE_STYLE('',(#374));
#221=EDGE_LOOP('',(#375,#376,#377,#378));
#222=AXIS2_PLACEMENT_3D('',#379,#380,#381);
#223=SURFACE_SIDE_STYLE('',(#382));
#224=SURFACE_SIDE_STYLE('',(#383));
#226=SURFACE_STYLE_FILL_AREA(#384);
#227=ORIENTED_EDGE('',*,*,#385,.F.);
#228=ORIENTED_EDGE('',*,*,#386,.F.);
#229=ORIENTED_EDGE('',*,*,#387,.T.);
#230=ORIENTED_EDGE('',*,*,#388,.T.);
#231=CARTESIAN_POINT('',(0.305200000000014,33.08445411101,18.5));
#232=DIRECTION('',(-1.0,0.0,0.0));
#233=DIRECTION('',(0.0,0.0,1.0));
#234=SURFACE_STYLE_FILL_AREA(#389);
#235=ORIENTED_EDGE('',*,*,#390,.F.);
#236=ORIENTED_EDGE('',*,*,#391,.T.);
#237=ORIENTED_EDGE('',*,*,#388,.F.);
#238=ORIENTED_EDGE('',*,*,#392,.T.);
#239=CARTESIAN_POINT('',(0.305200000000014,0.366599999999949,18.5));
#240=DIRECTION('',(0.0,0.0,1.0));
#241=DIRECTION('',(-1.0,0.0,0.0));
#242=SURFACE_STYLE_FILL_AREA(#393);
#243=ORIENTED_EDGE('',*,*,#394,.T.);
#244=ORIENTED_EDGE('',*,*,#395,.T.);
#245=ORIENTED_EDGE('',*,*,#396,.F.);
#246=ORIENTED_EDGE('',*,*,#397,.T.);
#247=ORIENTED_EDGE('',*,*,#392,.F.);
#248=ORIENTED_EDGE('',*,*,#387,.F.);
#249=ORIENTED_EDGE('',*,*,#398,.T.);
#250=CARTESIAN_POINT('',(0.305200000000014,0.366599999999949,-18.5));
#251=DIRECTION('',(0.0,0.0,-1.0));
#252=DIRECTION('',(0.0,-1.0,0.0));
#253=SURFACE_STYLE_FILL_AREA(#399);
#254=ORIENTED_EDGE('',*,*,#400,.T.);
#255=ORIENTED_EDGE('',*,*,#398,.F.);
#256=ORIENTED_EDGE('',*,*,#386,.T.);
#257=ORIENTED_EDGE('',*,*,#401,.T.);
#258=CARTESIAN_POINT('',(1.80520000000001,33.9916337879899,18.5));
#259=DIRECTION('',(0.0,1.0,0.0));
#260=DIRECTION('',(1.0,0.0,-0.0));
#261=SURFACE_STYLE_FILL_AREA(#402);
#262=ORIENTED_EDGE('',*,*,#403,.T.);
#263=ORIENTED_EDGE('',*,*,#404,.T.);
#264=ORIENTED_EDGE('',*,*,#405,.F.);
#265=ORIENTED_EDGE('',*,*,#406,.F.);
#266=ORIENTED_EDGE('',*,*,#401,.F.);
#267=ORIENTED_EDGE('',*,*,#385,.T.);
#268=ORIENTED_EDGE('',*,*,#391,.F.);
#269=CARTESIAN_POINT('',(0.305200000000014,0.366599999999949,18.5));
#270=DIRECTION('',(0.0,0.0,-1.0));
#271=DIRECTION('',(0.0,-1.0,0.0));
#272=SURFACE_STYLE_FILL_AREA(#407);
#273=ORIENTED_EDGE('',*,*,#406,.T.);
#274=ORIENTED_EDGE('',*,*,#408,.T.);
#275=ORIENTED_EDGE('',*,*,#394,.F.);
#276=ORIENTED_EDGE('',*,*,#400,.F.);
#277=CARTESIAN_POINT('',(13.8052,33.9916337879899,18.5));
#278=DIRECTION('',(1.0,0.0,0.0));
#279=DIRECTION('',(0.0,1.0,-0.0));
#280=SURFACE_STYLE_FILL_AREA(#409);
#281=ORIENTED_EDGE('',*,*,#410,.T.);
#282=ORIENTED_EDGE('',*,*,#395,.F.);
#283=ORIENTED_EDGE('',*,*,#408,.F.);
#284=ORIENTED_EDGE('',*,*,#405,.T.);
#285=CARTESIAN_POINT('',(13.8052,15.9916337879899,18.5));
#286=DIRECTION('',(0.782430733908113,-0.62273762262771,9.581696E-017));
#287=DIRECTION('',(0.0,-1.53864093830865E-016,-1.0));
#288=SURFACE_STYLE_FILL_AREA(#411);
#289=ORIENTED_EDGE('',*,*,#396,.T.);
#290=ORIENTED_EDGE('',*,*,#410,.F.);
#291=ORIENTED_EDGE('',*,*,#404,.F.);
#292=ORIENTED_EDGE('',*,*,#412,.F.);
#293=CARTESIAN_POINT('',(7.1853176782231,9.16750759936304,18.5));
#294=DIRECTION('',(-0.566406236924818,-0.824126188622026,-6.936247E-017));
#295=DIRECTION('',(-0.824126188622026,0.566406236924818,0.0));
#296=SURFACE_STYLE_FILL_AREA(#413);
#297=ORIENTED_EDGE('',*,*,#412,.T.);
#298=ORIENTED_EDGE('',*,*,#403,.F.);
#299=ORIENTED_EDGE('',*,*,#390,.T.);
#300=ORIENTED_EDGE('',*,*,#397,.F.);
#301=CARTESIAN_POINT('',(5.76784342167503,10.6101343200299,18.5));
#302=DIRECTION('',(-0.843391445812901,0.5372996083468,-1.032823E-016));
#303=DIRECTION('',(-1.22460691903807E-016,-6.62272899086487E-033,1.0));
#304=SURFACE_STYLE_FILL_AREA(#414);
#305=ORIENTED_EDGE('',*,*,#415,.T.);
#306=ORIENTED_EDGE('',*,*,#416,.F.);
#307=ORIENTED_EDGE('',*,*,#417,.F.);
#308=ORIENTED_EDGE('',*,*,#418,.F.);
#309=CARTESIAN_POINT('',(-0.305200000000014,14.1325999999999,-18.5));
#310=DIRECTION('',(1.0,0.0,0.0));
#311=DIRECTION('',(0.0,1.0,-0.0));
#312=SURFACE_STYLE_FILL_AREA(#419);
#313=ORIENTED_EDGE('',*,*,#420,.T.);
#314=ORIENTED_EDGE('',*,*,#421,.T.);
#315=ORIENTED_EDGE('',*,*,#422,.F.);
#316=ORIENTED_EDGE('',*,*,#423,.F.);
#317=ORIENTED_EDGE('',*,*,#424,.F.);
#318=ORIENTED_EDGE('',*,*,#425,.F.);
#319=ORIENTED_EDGE('',*,*,#418,.T.);
#320=CARTESIAN_POINT('',(-0.305200000000014,0.366599999999949,18.5));
#321=DIRECTION('',(0.0,0.0,1.0));
#322=DIRECTION('',(1.0,-0.0,0.0));
#323=SURFACE_STYLE_FILL_AREA(#426);
#324=ORIENTED_EDGE('',*,*,#427,.T.);
#325=ORIENTED_EDGE('',*,*,#428,.T.);
#326=ORIENTED_EDGE('',*,*,#415,.F.);
#327=ORIENTED_EDGE('',*,*,#425,.T.);
#328=CARTESIAN_POINT('',(-0.305200000000014,0.366599999999949,-18.5));
#329=DIRECTION('',(0.0,1.224606E-016,-1.0));
#330=DIRECTION('',(1.0,0.0,0.0));
#331=SURFACE_STYLE_FILL_AREA(#429);
#332=ORIENTED_EDGE('',*,*,#428,.F.);
#333=ORIENTED_EDGE('',*,*,#430,.F.);
#334=ORIENTED_EDGE('',*,*,#431,.T.);
#335=ORIENTED_EDGE('',*,*,#432,.T.);
#336=ORIENTED_EDGE('',*,*,#433,.F.);
#337=ORIENTED_EDGE('',*,*,#434,.F.);
#338=ORIENTED_EDGE('',*,*,#416,.T.);
#339=CARTESIAN_POINT('',(-0.305200000000014,0.366599999999949,-18.5));
#340=DIRECTION('',(0.0,0.0,1.0));
#341=DIRECTION('',(1.0,-0.0,0.0));
#342=SURFACE_STYLE_FILL_AREA(#435);
#343=ORIENTED_EDGE('',*,*,#436,.T.);
#344=ORIENTED_EDGE('',*,*,#420,.F.);
#345=ORIENTED_EDGE('',*,*,#417,.T.);
#346=ORIENTED_EDGE('',*,*,#434,.T.);
#347=CARTESIAN_POINT('',(-1.80520000000001,33.99165459324,-18.5));
#348=DIRECTION('',(0.0,1.0,0.0));
#349=DIRECTION('',(1.0,0.0,-0.0));
#350=SURFACE_STYLE_FILL_AREA(#437);
#351=ORIENTED_EDGE('',*,*,#438,.T.);
#352=ORIENTED_EDGE('',*,*,#421,.F.);
#353=ORIENTED_EDGE('',*,*,#436,.F.);
#354=ORIENTED_EDGE('',*,*,#433,.T.);
#355=CARTESIAN_POINT('',(-17.3052,33.9756545932399,-18.5));
#356=DIRECTION('',(-1.0,0.0,0.0));
#357=DIRECTION('',(0.0,0.0,1.0));
#358=SURFACE_STYLE_FILL_AREA(#439);
#359=ORIENTED_EDGE('',*,*,#422,.T.);
#360=ORIENTED_EDGE('',*,*,#438,.F.);
#361=ORIENTED_EDGE('',*,*,#432,.F.);
#362=ORIENTED_EDGE('',*,*,#440,.F.);
#363=CARTESIAN_POINT('',(-17.3052,17.3756545932399,-18.5));
#364=DIRECTION('',(-0.676651717559693,-0.736303234492092,-1.730314E-016));
#365=DIRECTION('',(-0.736303234492092,0.676651717559693,0.0));
#366=SURFACE_STYLE_FILL_AREA(#441);
#367=ORIENTED_EDGE('',*,*,#440,.T.);
#368=ORIENTED_EDGE('',*,*,#431,.F.);
#369=ORIENTED_EDGE('',*,*,#442,.T.);
#370=ORIENTED_EDGE('',*,*,#423,.T.);
#371=CARTESIAN_POINT('',(-7.20856755084105,9.15152840462292,-18.5));
#372=DIRECTION('',(0.566406236924818,-0.824126188622026,-3.156055E-017));
#373=DIRECTION('',(0.0,3.82957736760806E-017,-1.0));
#374=SURFACE_STYLE_FILL_AREA(#443);
#375=ORIENTED_EDGE('',*,*,#427,.F.);
#376=ORIENTED_EDGE('',*,*,#424,.T.);
#377=ORIENTED_EDGE('',*,*,#442,.F.);
#378=ORIENTED_EDGE('',*,*,#430,.T.);
#379=CARTESIAN_POINT('',(-5.76784342167503,10.6101343200299,-18.5));
#380=DIRECTION('',(0.843391445812901,0.5372996083468,1.690803E-016));
#381=DIRECTION('',(0.0,3.14685321510354E-016,-1.0));
#382=SURFACE_STYLE_FILL_AREA(#444);
#383=SURFACE_STYLE_FILL_AREA(#445);
#384=FILL_AREA_STYLE('',(#446));
#385=EDGE_CURVE('',#447,#448,#449,.T.);
#386=EDGE_CURVE('',#450,#447,#451,.T.);
#387=EDGE_CURVE('',#450,#452,#453,.T.);
#388=EDGE_CURVE('',#452,#448,#454,.T.);
#389=FILL_AREA_STYLE('',(#455));
#390=EDGE_CURVE('',#456,#457,#458,.T.);
#391=EDGE_CURVE('',#456,#448,#459,.T.);
#392=EDGE_CURVE('',#452,#457,#460,.T.);
#393=FILL_AREA_STYLE('',(#461));
#394=EDGE_CURVE('',#462,#463,#464,.T.);
#395=EDGE_CURVE('',#463,#465,#466,.T.);
#396=EDGE_CURVE('',#467,#465,#468,.T.);
#397=EDGE_CURVE('',#467,#457,#469,.T.);
#398=EDGE_CURVE('',#450,#462,#470,.T.);
#399=FILL_AREA_STYLE('',(#471));
#400=EDGE_CURVE('',#472,#462,#473,.T.);
#401=EDGE_CURVE('',#447,#472,#474,.T.);
#402=FILL_AREA_STYLE('',(#475));
#403=EDGE_CURVE('',#456,#476,#477,.T.);
#404=EDGE_CURVE('',#476,#478,#479,.T.);
#405=EDGE_CURVE('',#480,#478,#481,.T.);
#406=EDGE_CURVE('',#472,#480,#482,.T.);
#407=FILL_AREA_STYLE('',(#483));
#408=EDGE_CURVE('',#480,#463,#484,.T.);
#409=FILL_AREA_STYLE('',(#485));
#410=EDGE_CURVE('',#478,#465,#486,.T.);
#411=FILL_AREA_STYLE('',(#487));
#412=EDGE_CURVE('',#467,#476,#488,.T.);
#413=FILL_AREA_STYLE('',(#489));
#414=FILL_AREA_STYLE('',(#490));
#415=EDGE_CURVE('',#491,#492,#493,.T.);
#416=EDGE_CURVE('',#494,#492,#495,.T.);
#417=EDGE_CURVE('',#496,#494,#497,.T.);
#418=EDGE_CURVE('',#491,#496,#498,.T.);
#419=FILL_AREA_STYLE('',(#499));
#420=EDGE_CURVE('',#496,#500,#501,.T.);
#421=EDGE_CURVE('',#500,#502,#503,.T.);
#422=EDGE_CURVE('',#504,#502,#505,.T.);
#423=EDGE_CURVE('',#506,#504,#507,.T.);
#424=EDGE_CURVE('',#508,#506,#509,.T.);
#425=EDGE_CURVE('',#491,#508,#510,.T.);
#426=FILL_AREA_STYLE('',(#511));
#427=EDGE_CURVE('',#508,#512,#513,.T.);
#428=EDGE_CURVE('',#512,#492,#514,.T.);
#429=FILL_AREA_STYLE('',(#515));
#430=EDGE_CURVE('',#516,#512,#517,.T.);
#431=EDGE_CURVE('',#516,#518,#519,.T.);
#432=EDGE_CURVE('',#518,#520,#521,.T.);
#433=EDGE_CURVE('',#522,#520,#523,.T.);
#434=EDGE_CURVE('',#494,#522,#524,.T.);
#435=FILL_AREA_STYLE('',(#525));
#436=EDGE_CURVE('',#522,#500,#526,.T.);
#437=FILL_AREA_STYLE('',(#527));
#438=EDGE_CURVE('',#520,#502,#528,.T.);
#439=FILL_AREA_STYLE('',(#529));
#440=EDGE_CURVE('',#504,#518,#530,.T.);
#441=FILL_AREA_STYLE('',(#531));
#442=EDGE_CURVE('',#516,#506,#532,.T.);
#443=FILL_AREA_STYLE('',(#533));
#444=FILL_AREA_STYLE('',(#534));
#445=FILL_AREA_STYLE('',(#535));
#446=FILL_AREA_STYLE_COLOUR('',#536);
#447=VERTEX_POINT('',#537);
#448=VERTEX_POINT('',#538);
#449=LINE('',#539,#540);
#450=VERTEX_POINT('',#541);
#451=LINE('',#542,#543);
#452=VERTEX_POINT('',#544);
#453=LINE('',#545,#546);
#454=LINE('',#547,#548);
#455=FILL_AREA_STYLE_COLOUR('',#549);
#456=VERTEX_POINT('',#550);
#457=VERTEX_POINT('',#551);
#458=LINE('',#552,#553);
#459=CIRCLE('',#554,13.75);
#460=CIRCLE('',#555,13.75);
#461=FILL_AREA_STYLE_COLOUR('',#556);
#462=VERTEX_POINT('',#557);
#463=VERTEX_POINT('',#558);
#464=LINE('',#559,#560);
#465=VERTEX_POINT('',#561);
#466=LINE('',#562,#563);
#467=VERTEX_POINT('',#564);
#468=LINE('',#565,#566);
#469=LINE('',#567,#568);
#470=LINE('',#569,#570);
#471=FILL_AREA_STYLE_COLOUR('',#571);
#472=VERTEX_POINT('',#572);
#473=LINE('',#573,#574);
#474=LINE('',#575,#576);
#475=FILL_AREA_STYLE_COLOUR('',#577);
#476=VERTEX_POINT('',#578);
#477=LINE('',#579,#580);
#478=VERTEX_POINT('',#581);
#479=LINE('',#582,#583);
#480=VERTEX_POINT('',#584);
#481=LINE('',#585,#586);
#482=LINE('',#587,#588);
#483=FILL_AREA_STYLE_COLOUR('',#589);
#484=LINE('',#590,#591);
#485=FILL_AREA_STYLE_COLOUR('',#592);
#486=LINE('',#593,#594);
#487=FILL_AREA_STYLE_COLOUR('',#595);
#488=LINE('',#596,#597);
#489=FILL_AREA_STYLE_COLOUR('',#598);
#490=FILL_AREA_STYLE_COLOUR('',#599);
#491=VERTEX_POINT('',#600);
#492=VERTEX_POINT('',#601);
#493=LINE('',#602,#603);
#494=VERTEX_POINT('',#604);
#495=LINE('',#605,#606);
#496=VERTEX_POINT('',#607);
#497=LINE('',#608,#609);
#498=LINE('',#610,#611);
#499=FILL_AREA_STYLE_COLOUR('',#612);
#500=VERTEX_POINT('',#613);
#501=LINE('',#614,#615);
#502=VERTEX_POINT('',#616);
#503=LINE('',#617,#618);
#504=VERTEX_POINT('',#619);
#505=LINE('',#620,#621);
#506=VERTEX_POINT('',#622);
#507=LINE('',#623,#624);
#508=VERTEX_POINT('',#625);
#509=LINE('',#626,#627);
#510=CIRCLE('',#628,13.75);
#511=FILL_AREA_STYLE_COLOUR('',#629);
#512=VERTEX_POINT('',#630);
#513=LINE('',#631,#632);
#514=CIRCLE('',#633,13.75);
#515=FILL_AREA_STYLE_COLOUR('',#634);
#516=VERTEX_POINT('',#635);
#517=LINE('',#636,#637);
#518=VERTEX_POINT('',#638);
#519=LINE('',#639,#640);
#520=VERTEX_POINT('',#641);
#521=LINE('',#642,#643);
#522=VERTEX_POINT('',#644);
#523=LINE('',#645,#646);
#524=LINE('',#647,#648);
#525=FILL_AREA_STYLE_COLOUR('',#649);
#526=LINE('',#650,#651);
#527=FILL_AREA_STYLE_COLOUR('',#652);
#528=LINE('',#653,#654);
#529=FILL_AREA_STYLE_COLOUR('',#655);
#530=LINE('',#656,#657);
#531=FILL_AREA_STYLE_COLOUR('',#658);
#532=LINE('',#659,#660);
#533=FILL_AREA_STYLE_COLOUR('',#661);
#534=FILL_AREA_STYLE_COLOUR('',#662);
#535=FILL_AREA_STYLE_COLOUR('',#663);
#536=COLOUR_RGB('',0.752941191196442,0.752941191196442,0.752941191196442);
#537=CARTESIAN_POINT('',(0.305200000000014,33.9916337879899,18.5));
#538=CARTESIAN_POINT('',(0.305200000000014,14.1166,18.5));
#539=CARTESIAN_POINT('',(0.305200000000014,33.9916337879899,18.5));
#540=VECTOR('',#664,19.87503378799);
#541=CARTESIAN_POINT('',(0.305200000000014,33.9916337879899,-18.5));
#542=CARTESIAN_POINT('',(0.305200000000014,33.9916337879899,-18.5));
#543=VECTOR('',#665,37.0);
#544=CARTESIAN_POINT('',(0.305200000000014,14.1166,-18.5));
#545=CARTESIAN_POINT('',(0.305200000000014,33.9916337879899,-18.5));
#546=VECTOR('',#666,19.87503378799);
#547=CARTESIAN_POINT('',(0.305200000000014,14.1166,-18.5));
#548=VECTOR('',#667,37.0);
#549=COLOUR_RGB('',0.752941191196442,0.752941191196442,0.752941191196442);
#550=CARTESIAN_POINT('',(6.92107347929414,12.420342908573,18.5));
#551=CARTESIAN_POINT('',(6.92107347929414,12.420342908573,-18.5));
#552=CARTESIAN_POINT('',(6.92107347929414,12.420342908573,18.5));
#553=VECTOR('',#668,37.0);
#554=AXIS2_PLACEMENT_3D('',#669,#670,#671);
#555=AXIS2_PLACEMENT_3D('',#672,#673,#674);
#556=COLOUR_RGB('',0.752941191196442,0.752941191196442,0.752941191196442);
#557=CARTESIAN_POINT('',(13.8052,33.9916337879899,-18.5));
#558=CARTESIAN_POINT('',(13.8052,15.9916337879899,-18.5));
#559=CARTESIAN_POINT('',(13.8052,33.9916337879899,-18.5));
#560=VECTOR('',#675,18.0);
#561=CARTESIAN_POINT('',(7.95360828249272,8.6394760963758,-18.5));
#562=CARTESIAN_POINT('',(13.8052,15.9916337879899,-18.5));
#563=VECTOR('',#676,9.39656045320632);
#564=CARTESIAN_POINT('',(5.56029774147987,10.2843528592346,-18.5));
#565=CARTESIAN_POINT('',(5.56029774147987,10.2843528592346,-18.5));
#566=VECTOR('',#677,2.90405835180974);
#567=CARTESIAN_POINT('',(5.56029774147987,10.2843528592346,-18.5));
#568=VECTOR('',#678,2.53262000692899);
#569=CARTESIAN_POINT('',(0.305200000000014,33.9916337879899,-18.5));
#570=VECTOR('',#679,13.5);
#571=COLOUR_RGB('',0.752941191196442,0.752941191196442,0.752941191196442);
#572=CARTESIAN_POINT('',(13.8052,33.9916337879899,18.5));
#573=CARTESIAN_POINT('',(13.8052,33.9916337879899,18.5));
#574=VECTOR('',#680,37.0);
#575=CARTESIAN_POINT('',(0.305200000000014,33.9916337879899,18.5));
#576=VECTOR('',#681,13.5);
#577=COLOUR_RGB('',0.752941191196442,0.752941191196442,0.752941191196442);
#578=CARTESIAN_POINT('',(5.56029774147987,10.2843528592346,18.5));
#579=CARTESIAN_POINT('',(6.92107347929414,12.420342908573,18.5));
#580=VECTOR('',#682,2.53262000692899);
#581=CARTESIAN_POINT('',(7.95360828249272,8.6394760963758,18.5));
#582=CARTESIAN_POINT('',(5.56029774147987,10.2843528592346,18.5));
#583=VECTOR('',#683,2.90405835180974);
#584=CARTESIAN_POINT('',(13.8052,15.9916337879899,18.5));
#585=CARTESIAN_POINT('',(13.8052,15.9916337879899,18.5));
#586=VECTOR('',#684,9.39656045320632);
#587=CARTESIAN_POINT('',(13.8052,33.9916337879899,18.5));
#588=VECTOR('',#685,18.0);
#589=COLOUR_RGB('',0.752941191196442,0.752941191196442,0.752941191196442);
#590=CARTESIAN_POINT('',(13.8052,15.9916337879899,18.5));
#591=VECTOR('',#686,37.0);
#592=COLOUR_RGB('',0.752941191196442,0.752941191196442,0.752941191196442);
#593=CARTESIAN_POINT('',(7.95360828249272,8.6394760963758,18.5));
#594=VECTOR('',#687,37.0);
#595=COLOUR_RGB('',0.752941191196442,0.752941191196442,0.752941191196442);
#596=CARTESIAN_POINT('',(5.56029774147987,10.2843528592346,-18.5));
#597=VECTOR('',#688,37.0);
#598=COLOUR_RGB('',0.752941191196442,0.752941191196442,0.752941191196442);
#599=COLOUR_RGB('',0.752941191196442,0.752941191196442,0.752941191196442);
#600=CARTESIAN_POINT('',(-0.305200000000014,14.1166,18.5));
#601=CARTESIAN_POINT('',(-0.305200000000014,14.1166,-18.5));
#602=CARTESIAN_POINT('',(-0.305200000000014,14.1166,18.5));
#603=VECTOR('',#689,37.0);
#604=CARTESIAN_POINT('',(-0.305200000000014,33.99165459324,-18.5));
#605=CARTESIAN_POINT('',(-0.305200000000014,33.99165459324,-18.5));
#606=VECTOR('',#690,19.8750545932401);
#607=CARTESIAN_POINT('',(-0.305200000000014,33.9916545932399,18.5));
#608=CARTESIAN_POINT('',(-0.305200000000014,33.9916545932399,18.5));
#609=VECTOR('',#691,37.0);
#610=CARTESIAN_POINT('',(-0.305200000000014,14.1166,18.5));
#611=VECTOR('',#692,19.87505459324);
#612=COLOUR_RGB('',0.752941191196442,0.752941191196442,0.752941191196442);
#613=CARTESIAN_POINT('',(-17.3052,33.99165459324,18.5));
#614=CARTESIAN_POINT('',(-0.305200000000014,33.9916545932399,18.5));
#615=VECTOR('',#693,17.0);
#616=CARTESIAN_POINT('',(-17.3052,17.3756545932399,18.5));
#617=CARTESIAN_POINT('',(-17.3052,33.99165459324,18.5));
#618=VECTOR('',#694,16.6160000000001);
#619=CARTESIAN_POINT('',(-7.86507697003981,8.70032198166507,18.5));
#620=CARTESIAN_POINT('',(-7.86507697003981,8.70032198166507,18.5));
#621=VECTOR('',#695,12.8209718329867);
#622=CARTESIAN_POINT('',(-5.56029774147987,10.2843528592347,18.5));
#623=CARTESIAN_POINT('',(-5.56029774147987,10.2843528592347,18.5));
#624=VECTOR('',#696,2.79663388978523);
#625=CARTESIAN_POINT('',(-6.92107347929391,12.420342908573,18.5));
#626=CARTESIAN_POINT('',(-6.92107347929391,12.420342908573,18.5));
#627=VECTOR('',#697,2.53262000692877);
#628=AXIS2_PLACEMENT_3D('',#698,#699,#700);
#629=COLOUR_RGB('',0.752941191196442,0.752941191196442,0.752941191196442);
#630=CARTESIAN_POINT('',(-6.92107347929391,12.420342908573,-18.5));
#631=CARTESIAN_POINT('',(-6.92107347929391,12.420342908573,18.5));
#632=VECTOR('',#701,37.0);
#633=AXIS2_PLACEMENT_3D('',#702,#703,#704);
#634=COLOUR_RGB('',0.752941191196442,0.752941191196442,0.752941191196442);
#635=CARTESIAN_POINT('',(-5.56029774147987,10.2843528592347,-18.5));
#636=CARTESIAN_POINT('',(-5.56029774147987,10.2843528592347,-18.5));
#637=VECTOR('',#705,2.53262000692877);
#638=CARTESIAN_POINT('',(-7.86507697003981,8.70032198166507,-18.5));
#639=CARTESIAN_POINT('',(-5.56029774147987,10.2843528592347,-18.5));
#640=VECTOR('',#706,2.79663388978523);
#641=CARTESIAN_POINT('',(-17.3052,17.3756545932399,-18.5));
#642=CARTESIAN_POINT('',(-7.86507697003981,8.70032198166507,-18.5));
#643=VECTOR('',#707,12.8209718329867);
#644=CARTESIAN_POINT('',(-17.3052,33.99165459324,-18.5));
#645=CARTESIAN_POINT('',(-17.3052,33.99165459324,-18.5));
#646=VECTOR('',#708,16.6160000000001);
#647=CARTESIAN_POINT('',(-0.305200000000014,33.99165459324,-18.5));
#648=VECTOR('',#709,17.0);
#649=COLOUR_RGB('',0.752941191196442,0.752941191196442,0.752941191196442);
#650=CARTESIAN_POINT('',(-17.3052,33.99165459324,-18.5));
#651=VECTOR('',#710,37.0);
#652=COLOUR_RGB('',0.752941191196442,0.752941191196442,0.752941191196442);
#653=CARTESIAN_POINT('',(-17.3052,17.3756545932399,-18.5));
#654=VECTOR('',#711,37.0);
#655=COLOUR_RGB('',0.752941191196442,0.752941191196442,0.752941191196442);
#656=CARTESIAN_POINT('',(-7.86507697003981,8.70032198166507,18.5));
#657=VECTOR('',#712,37.0);
#658=COLOUR_RGB('',0.752941191196442,0.752941191196442,0.752941191196442);
#659=CARTESIAN_POINT('',(-5.56029774147987,10.2843528592347,-18.5));
#660=VECTOR('',#713,37.0);
#661=COLOUR_RGB('',0.752941191196442,0.752941191196442,0.752941191196442);
#662=COLOUR_RGB('',0.752941012382507,0.752941012382507,0.752941012382507);
#663=COLOUR_RGB('',0.752941012382507,0.752941012382507,0.752941012382507);
#664=DIRECTION('',(0.0,-1.0,0.0));
#665=DIRECTION('',(0.0,0.0,1.0));
#666=DIRECTION('',(0.0,-1.0,0.0));
#667=DIRECTION('',(0.0,0.0,1.0));
#668=DIRECTION('',(0.0,0.0,-1.0));
#669=CARTESIAN_POINT('',(0.305200000000014,0.366599999999949,18.5));
#670=DIRECTION('',(0.0,-0.0,1.0));
#671=DIRECTION('',(0.481154434857745,0.87663584789622,0.0));
#672=CARTESIAN_POINT('',(0.305200000000014,0.366599999999949,-18.5));
#673=DIRECTION('',(0.0,0.0,-1.0));
#674=DIRECTION('',(0.0,1.0,0.0));
#675=DIRECTION('',(0.0,-1.0,0.0));
#676=DIRECTION('',(-0.622737622627711,-0.782430733908112,0.0));
#677=DIRECTION('',(0.824126188622026,-0.566406236924818,0.0));
#678=DIRECTION('',(0.5372996083468,0.843391445812901,0.0));
#679=DIRECTION('',(1.0,0.0,0.0));
#680=DIRECTION('',(0.0,0.0,-1.0));
#681=DIRECTION('',(1.0,0.0,0.0));
#682=DIRECTION('',(-0.5372996083468,-0.843391445812901,0.0));
#683=DIRECTION('',(0.824126188622026,-0.566406236924818,0.0));
#684=DIRECTION('',(-0.62273762262771,-0.782430733908113,0.0));
#685=DIRECTION('',(0.0,-1.0,0.0));
#686=DIRECTION('',(0.0,0.0,-1.0));
#687=DIRECTION('',(0.0,0.0,-1.0));
#688=DIRECTION('',(0.0,0.0,1.0));
#689=DIRECTION('',(0.0,0.0,-1.0));
#690=DIRECTION('',(0.0,-1.0,0.0));
#691=DIRECTION('',(0.0,0.0,-1.0));
#692=DIRECTION('',(0.0,1.0,0.0));
#693=DIRECTION('',(-1.0,0.0,0.0));
#694=DIRECTION('',(0.0,-1.0,0.0));
#695=DIRECTION('',(-0.736303234492092,0.676651717559693,0.0));
#696=DIRECTION('',(-0.824126188622026,-0.566406236924817,0.0));
#697=DIRECTION('',(0.5372996083468,-0.843391445812901,0.0));
#698=CARTESIAN_POINT('',(-0.305200000000014,0.366599999999949,18.5));
#699=DIRECTION('',(0.0,-0.0,1.0));
#700=DIRECTION('',(0.0,1.0,0.0));
#701=DIRECTION('',(0.0,0.0,-1.0));
#702=CARTESIAN_POINT('',(-0.305200000000014,0.366599999999949,-18.5));
#703=DIRECTION('',(0.0,0.0,-1.0));
#704=DIRECTION('',(-0.481154434857745,0.87663584789622,0.0));
#705=DIRECTION('',(-0.5372996083468,0.843391445812901,0.0));
#706=DIRECTION('',(-0.824126188622026,-0.566406236924818,0.0));
#707=DIRECTION('',(-0.736303234492092,0.676651717559693,0.0));
#708=DIRECTION('',(0.0,-1.0,0.0));
#709=DIRECTION('',(-1.0,0.0,0.0));
#710=DIRECTION('',(0.0,0.0,1.0));
#711=DIRECTION('',(0.0,0.0,1.0));
#712=DIRECTION('',(0.0,0.0,-1.0));
#713=DIRECTION('',(0.0,0.0,1.0));
ENDSEC;
END-ISO-10303-21;
