ISO-10303-21;
HEADER;
FILE_DESCRIPTION(('STEP AP214'),'1');
FILE_NAME('cctmp_1D287046-1DD6-4ABA-AF6C-1CC663B91C32_2020_1_16_8_59_49_98..stp','2020-01-16T07:59:49',('Bosch Rexroth AG'),('CADClick - www.CADClick.com'),'Spatial InterOp 3D',' ','unknown authorization - (Healing Option Enabled)');
FILE_SCHEMA(('AUTOMOTIVE_DESIGN'));
ENDSEC;
DATA;
#1=MECHANICAL_DESIGN_GEOMETRIC_PRESENTATION_REPRESENTATION(' ',(#10,#11,#12,#13,#14,#15,#16,#17,#18,#19,#20),#6);
#2=PRODUCT_DEFINITION_CONTEXT('',#21,'design');
#3=APPLICATION_PROTOCOL_DEFINITION('INTERNATIONAL STANDARD','automotive_design',1994,#21);
#4=PRODUCT_CATEGORY_RELATIONSHIP('NONE','NONE',#22,#23);
#5=SHAPE_DEFINITION_REPRESENTATION(#24,#25);
#6= (GEOMETRIC_REPRESENTATION_CONTEXT(3)GLOBAL_UNCERTAINTY_ASSIGNED_CONTEXT((#28))GLOBAL_UNIT_ASSIGNED_CONTEXT((#30,#31,#32))REPRESENTATION_CONTEXT('NONE','WORKSPACE'));
#10=STYLED_ITEM('',(#34),#35);
#11=STYLED_ITEM('',(#36),#37);
#12=STYLED_ITEM('',(#38),#39);
#13=STYLED_ITEM('',(#40),#41);
#14=STYLED_ITEM('',(#42),#43);
#15=STYLED_ITEM('',(#44),#45);
#16=STYLED_ITEM('',(#46),#47);
#17=STYLED_ITEM('',(#48),#49);
#18=STYLED_ITEM('',(#50),#51);
#19=STYLED_ITEM('',(#52),#53);
#20=STYLED_ITEM('',(#54),#55);
#21=APPLICATION_CONTEXT(' ');
#22=PRODUCT_CATEGORY('part','NONE');
#23=PRODUCT_RELATED_PRODUCT_CATEGORY('detail',' ',(#56));
#24=PRODUCT_DEFINITION_SHAPE('NONE','NONE',#57);
#25=ADVANCED_BREP_SHAPE_REPRESENTATION('2020_01_16__08-59-49-098',(#55,#58),#6);
#28=UNCERTAINTY_MEASURE_WITH_UNIT(LENGTH_MEASURE(1.0E-006),#30,'','');
#30= (CONVERSION_BASED_UNIT('MILLIMETRE',#61)LENGTH_UNIT()NAMED_UNIT(#64));
#31= (NAMED_UNIT(#66)PLANE_ANGLE_UNIT()SI_UNIT($,.RADIAN.));
#32= (NAMED_UNIT(#66)SOLID_ANGLE_UNIT()SI_UNIT($,.STERADIAN.));
#34=PRESENTATION_STYLE_ASSIGNMENT((#72));
#35=ADVANCED_FACE('',(#73),#74,.T.);
#36=PRESENTATION_STYLE_ASSIGNMENT((#75));
#37=ADVANCED_FACE('',(#76),#77,.F.);
#38=PRESENTATION_STYLE_ASSIGNMENT((#78));
#39=ADVANCED_FACE('',(#79),#80,.F.);
#40=PRESENTATION_STYLE_ASSIGNMENT((#81));
#41=ADVANCED_FACE('',(#82),#83,.T.);
#42=PRESENTATION_STYLE_ASSIGNMENT((#84));
#43=ADVANCED_FACE('',(#85),#86,.T.);
#44=PRESENTATION_STYLE_ASSIGNMENT((#87));
#45=ADVANCED_FACE('',(#88),#89,.T.);
#46=PRESENTATION_STYLE_ASSIGNMENT((#90));
#47=ADVANCED_FACE('',(#91),#92,.T.);
#48=PRESENTATION_STYLE_ASSIGNMENT((#93));
#49=ADVANCED_FACE('',(#94),#95,.T.);
#50=PRESENTATION_STYLE_ASSIGNMENT((#96));
#51=ADVANCED_FACE('',(#97,#98),#99,.F.);
#52=PRESENTATION_STYLE_ASSIGNMENT((#100));
#53=ADVANCED_FACE('',(#101,#102),#103,.T.);
#54=PRESENTATION_STYLE_ASSIGNMENT((#104));
#55=MANIFOLD_SOLID_BREP('2020_01_16__08-59-49-098',#105);
#56=PRODUCT('2020_01_16__08-59-49-098','','PART--DESC',(#106));
#57=PRODUCT_DEFINITION('','NONE',#107,#2);
#58=AXIS2_PLACEMENT_3D('',#108,#109,#110);
#61=LENGTH_MEASURE_WITH_UNIT(LENGTH_MEASURE(1.0),#111);
#64=DIMENSIONAL_EXPONENTS(1.0,0.0,0.0,0.0,0.0,0.0,0.0);
#66=DIMENSIONAL_EXPONENTS(0.0,0.0,0.0,0.0,0.0,0.0,0.0);
#72=SURFACE_STYLE_USAGE(.BOTH.,#112);
#73=FACE_OUTER_BOUND('',#113,.T.);
#74=CYLINDRICAL_SURFACE('',#114,6.0000000017);
#75=SURFACE_STYLE_USAGE(.BOTH.,#115);
#76=FACE_OUTER_BOUND('',#116,.T.);
#77=CYLINDRICAL_SURFACE('',#117,3.0);
#78=SURFACE_STYLE_USAGE(.BOTH.,#118);
#79=FACE_OUTER_BOUND('',#119,.T.);
#80=CYLINDRICAL_SURFACE('',#120,3.0);
#81=SURFACE_STYLE_USAGE(.BOTH.,#121);
#82=FACE_OUTER_BOUND('',#122,.T.);
#83=PLANE('',#123);
#84=SURFACE_STYLE_USAGE(.BOTH.,#124);
#85=FACE_OUTER_BOUND('',#125,.T.);
#86=PLANE('',#126);
#87=SURFACE_STYLE_USAGE(.BOTH.,#127);
#88=FACE_OUTER_BOUND('',#128,.T.);
#89=PLANE('',#129);
#90=SURFACE_STYLE_USAGE(.BOTH.,#130);
#91=FACE_OUTER_BOUND('',#131,.T.);
#92=PLANE('',#132);
#93=SURFACE_STYLE_USAGE(.BOTH.,#133);
#94=FACE_OUTER_BOUND('',#134,.T.);
#95=CYLINDRICAL_SURFACE('',#135,6.0000000017);
#96=SURFACE_STYLE_USAGE(.BOTH.,#136);
#97=FACE_BOUND('',#137,.T.);
#98=FACE_OUTER_BOUND('',#138,.T.);
#99=PLANE('',#139);
#100=SURFACE_STYLE_USAGE(.BOTH.,#140);
#101=FACE_BOUND('',#141,.T.);
#102=FACE_OUTER_BOUND('',#142,.T.);
#103=PLANE('',#143);
#104=SURFACE_STYLE_USAGE(.BOTH.,#144);
#105=CLOSED_SHELL('',(#35,#37,#39,#41,#43,#45,#47,#49,#51,#53));
#106=PRODUCT_CONTEXT('',#21,'mechanical');
#107=PRODUCT_DEFINITION_FORMATION_WITH_SPECIFIED_SOURCE(' ','NONE',#56,.NOT_KNOWN.);
#108=CARTESIAN_POINT('',(0.0,0.0,0.0));
#109=DIRECTION('',(0.0,0.0,1.0));
#110=DIRECTION('',(1.0,0.0,0.0));
#111= (NAMED_UNIT(#64)LENGTH_UNIT()SI_UNIT(.MILLI.,.METRE.));
#112=SURFACE_SIDE_STYLE('',(#146));
#113=EDGE_LOOP('',(#147,#148,#149,#150));
#114=AXIS2_PLACEMENT_3D('',#151,#152,#153);
#115=SURFACE_SIDE_STYLE('',(#154));
#116=EDGE_LOOP('',(#155,#156,#157,#158));
#117=AXIS2_PLACEMENT_3D('',#159,#160,#161);
#118=SURFACE_SIDE_STYLE('',(#162));
#119=EDGE_LOOP('',(#163,#164,#165,#166));
#120=AXIS2_PLACEMENT_3D('',#167,#168,#169);
#121=SURFACE_SIDE_STYLE('',(#170));
#122=EDGE_LOOP('',(#171,#172,#173,#174));
#123=AXIS2_PLACEMENT_3D('',#175,#176,#177);
#124=SURFACE_SIDE_STYLE('',(#178));
#125=EDGE_LOOP('',(#179,#180,#181,#182));
#126=AXIS2_PLACEMENT_3D('',#183,#184,#185);
#127=SURFACE_SIDE_STYLE('',(#186));
#128=EDGE_LOOP('',(#187,#188,#189,#190));
#129=AXIS2_PLACEMENT_3D('',#191,#192,#193);
#130=SURFACE_SIDE_STYLE('',(#194));
#131=EDGE_LOOP('',(#195,#196,#197,#198));
#132=AXIS2_PLACEMENT_3D('',#199,#200,#201);
#133=SURFACE_SIDE_STYLE('',(#202));
#134=EDGE_LOOP('',(#203,#204,#205,#206));
#135=AXIS2_PLACEMENT_3D('',#207,#208,#209);
#136=SURFACE_SIDE_STYLE('',(#210));
#137=EDGE_LOOP('',(#211,#212));
#138=EDGE_LOOP('',(#213,#214,#215,#216,#217,#218));
#139=AXIS2_PLACEMENT_3D('',#219,#220,#221);
#140=SURFACE_SIDE_STYLE('',(#222));
#141=EDGE_LOOP('',(#223,#224));
#142=EDGE_LOOP('',(#225,#226,#227,#228,#229,#230));
#143=AXIS2_PLACEMENT_3D('',#231,#232,#233);
#144=SURFACE_SIDE_STYLE('',(#234));
#146=SURFACE_STYLE_FILL_AREA(#235);
#147=ORIENTED_EDGE('',*,*,#236,.F.);
#148=ORIENTED_EDGE('',*,*,#237,.T.);
#149=ORIENTED_EDGE('',*,*,#238,.F.);
#150=ORIENTED_EDGE('',*,*,#239,.T.);
#151=CARTESIAN_POINT('',(0.0,-1.70000102883705E-009,6.0000000017));
#152=DIRECTION('',(1.0,0.0,0.0));
#153=DIRECTION('',(0.0,1.0,-2.8099877972064E-010));
#154=SURFACE_STYLE_FILL_AREA(#240);
#155=ORIENTED_EDGE('',*,*,#241,.F.);
#156=ORIENTED_EDGE('',*,*,#242,.F.);
#157=ORIENTED_EDGE('',*,*,#243,.F.);
#158=ORIENTED_EDGE('',*,*,#244,.F.);
#159=CARTESIAN_POINT('',(500.0,0.0,6.0));
#160=DIRECTION('',(1.0,0.0,0.0));
#161=DIRECTION('',(0.0,0.0,-1.0));
#162=SURFACE_STYLE_FILL_AREA(#245);
#163=ORIENTED_EDGE('',*,*,#241,.T.);
#164=ORIENTED_EDGE('',*,*,#246,.F.);
#165=ORIENTED_EDGE('',*,*,#243,.T.);
#166=ORIENTED_EDGE('',*,*,#247,.F.);
#167=CARTESIAN_POINT('',(500.0,0.0,6.0));
#168=DIRECTION('',(1.0,0.0,0.0));
#169=DIRECTION('',(0.0,0.0,-1.0));
#170=SURFACE_STYLE_FILL_AREA(#248);
#171=ORIENTED_EDGE('',*,*,#249,.T.);
#172=ORIENTED_EDGE('',*,*,#250,.F.);
#173=ORIENTED_EDGE('',*,*,#251,.T.);
#174=ORIENTED_EDGE('',*,*,#238,.T.);
#175=CARTESIAN_POINT('',(0.0,6.0,5.000000000007));
#176=DIRECTION('',(0.0,1.0,0.0));
#177=DIRECTION('',(0.0,0.0,1.0));
#178=SURFACE_STYLE_FILL_AREA(#252);
#179=ORIENTED_EDGE('',*,*,#253,.T.);
#180=ORIENTED_EDGE('',*,*,#254,.F.);
#181=ORIENTED_EDGE('',*,*,#255,.T.);
#182=ORIENTED_EDGE('',*,*,#250,.T.);
#183=CARTESIAN_POINT('',(0.0,22.75,4.0));
#184=DIRECTION('',(0.0,0.0,1.0));
#185=DIRECTION('',(0.0,-1.0,0.0));
#186=SURFACE_STYLE_FILL_AREA(#256);
#187=ORIENTED_EDGE('',*,*,#257,.T.);
#188=ORIENTED_EDGE('',*,*,#258,.F.);
#189=ORIENTED_EDGE('',*,*,#259,.T.);
#190=ORIENTED_EDGE('',*,*,#254,.T.);
#191=CARTESIAN_POINT('',(0.0,39.5,2.0));
#192=DIRECTION('',(0.0,1.0,0.0));
#193=DIRECTION('',(0.0,0.0,1.0));
#194=SURFACE_STYLE_FILL_AREA(#260);
#195=ORIENTED_EDGE('',*,*,#261,.T.);
#196=ORIENTED_EDGE('',*,*,#262,.F.);
#197=ORIENTED_EDGE('',*,*,#263,.T.);
#198=ORIENTED_EDGE('',*,*,#258,.T.);
#199=CARTESIAN_POINT('',(0.0,19.749999999993,0.0));
#200=DIRECTION('',(0.0,0.0,-1.0));
#201=DIRECTION('',(0.0,1.0,0.0));
#202=SURFACE_STYLE_FILL_AREA(#264);
#203=ORIENTED_EDGE('',*,*,#236,.T.);
#204=ORIENTED_EDGE('',*,*,#265,.T.);
#205=ORIENTED_EDGE('',*,*,#262,.T.);
#206=ORIENTED_EDGE('',*,*,#266,.T.);
#207=CARTESIAN_POINT('',(0.0,-1.70000102883705E-009,6.0000000017));
#208=DIRECTION('',(1.0,0.0,0.0));
#209=DIRECTION('',(0.0,1.0,-2.8099877972064E-010));
#210=SURFACE_STYLE_FILL_AREA(#267);
#211=ORIENTED_EDGE('',*,*,#244,.T.);
#212=ORIENTED_EDGE('',*,*,#246,.T.);
#213=ORIENTED_EDGE('',*,*,#239,.F.);
#214=ORIENTED_EDGE('',*,*,#251,.F.);
#215=ORIENTED_EDGE('',*,*,#255,.F.);
#216=ORIENTED_EDGE('',*,*,#259,.F.);
#217=ORIENTED_EDGE('',*,*,#263,.F.);
#218=ORIENTED_EDGE('',*,*,#265,.F.);
#219=CARTESIAN_POINT('',(0.0,15.7338828047399,3.22588072431983));
#220=DIRECTION('',(1.0,0.0,0.0));
#221=DIRECTION('',(0.0,1.0,0.0));
#222=SURFACE_STYLE_FILL_AREA(#268);
#223=ORIENTED_EDGE('',*,*,#247,.T.);
#224=ORIENTED_EDGE('',*,*,#242,.T.);
#225=ORIENTED_EDGE('',*,*,#249,.F.);
#226=ORIENTED_EDGE('',*,*,#237,.F.);
#227=ORIENTED_EDGE('',*,*,#266,.F.);
#228=ORIENTED_EDGE('',*,*,#261,.F.);
#229=ORIENTED_EDGE('',*,*,#257,.F.);
#230=ORIENTED_EDGE('',*,*,#253,.F.);
#231=CARTESIAN_POINT('',(1000.0,15.7338828047399,3.22588072431983));
#232=DIRECTION('',(1.0,0.0,0.0));
#233=DIRECTION('',(0.0,1.0,0.0));
#234=SURFACE_STYLE_FILL_AREA(#269);
#235=FILL_AREA_STYLE('',(#270));
#236=EDGE_CURVE('',#271,#272,#273,.T.);
#237=EDGE_CURVE('',#271,#274,#275,.T.);
#238=EDGE_CURVE('',#276,#274,#277,.T.);
#239=EDGE_CURVE('',#276,#272,#278,.T.);
#240=FILL_AREA_STYLE('',(#279));
#241=EDGE_CURVE('',#280,#281,#282,.T.);
#242=EDGE_CURVE('',#283,#280,#284,.T.);
#243=EDGE_CURVE('',#285,#283,#286,.T.);
#244=EDGE_CURVE('',#281,#285,#287,.T.);
#245=FILL_AREA_STYLE('',(#288));
#246=EDGE_CURVE('',#285,#281,#289,.T.);
#247=EDGE_CURVE('',#280,#283,#290,.T.);
#248=FILL_AREA_STYLE('',(#291));
#249=EDGE_CURVE('',#274,#292,#293,.T.);
#250=EDGE_CURVE('',#294,#292,#295,.T.);
#251=EDGE_CURVE('',#294,#276,#296,.T.);
#252=FILL_AREA_STYLE('',(#297));
#253=EDGE_CURVE('',#292,#298,#299,.T.);
#254=EDGE_CURVE('',#300,#298,#301,.T.);
#255=EDGE_CURVE('',#300,#294,#302,.T.);
#256=FILL_AREA_STYLE('',(#303));
#257=EDGE_CURVE('',#298,#304,#305,.T.);
#258=EDGE_CURVE('',#306,#304,#307,.T.);
#259=EDGE_CURVE('',#306,#300,#308,.T.);
#260=FILL_AREA_STYLE('',(#309));
#261=EDGE_CURVE('',#304,#310,#311,.T.);
#262=EDGE_CURVE('',#312,#310,#313,.T.);
#263=EDGE_CURVE('',#312,#306,#314,.T.);
#264=FILL_AREA_STYLE('',(#315));
#265=EDGE_CURVE('',#272,#312,#316,.T.);
#266=EDGE_CURVE('',#310,#271,#317,.T.);
#267=FILL_AREA_STYLE('',(#318));
#268=FILL_AREA_STYLE('',(#319));
#269=FILL_AREA_STYLE('',(#320));
#270=FILL_AREA_STYLE_COLOUR('',#321);
#271=VERTEX_POINT('',#322);
#272=VERTEX_POINT('',#323);
#273=LINE('',#324,#325);
#274=VERTEX_POINT('',#326);
#275=CIRCLE('',#327,6.0000000017);
#276=VERTEX_POINT('',#328);
#277=LINE('',#329,#330);
#278=CIRCLE('',#331,6.0000000017);
#279=FILL_AREA_STYLE_COLOUR('',#332);
#280=VERTEX_POINT('',#333);
#281=VERTEX_POINT('',#334);
#282=LINE('',#335,#336);
#283=VERTEX_POINT('',#337);
#284=CIRCLE('',#338,3.0);
#285=VERTEX_POINT('',#339);
#286=LINE('',#340,#341);
#287=CIRCLE('',#342,3.0);
#288=FILL_AREA_STYLE_COLOUR('',#343);
#289=CIRCLE('',#344,3.0);
#290=CIRCLE('',#345,3.0);
#291=FILL_AREA_STYLE_COLOUR('',#346);
#292=VERTEX_POINT('',#347);
#293=LINE('',#348,#349);
#294=VERTEX_POINT('',#350);
#295=LINE('',#351,#352);
#296=LINE('',#353,#354);
#297=FILL_AREA_STYLE_COLOUR('',#355);
#298=VERTEX_POINT('',#356);
#299=LINE('',#357,#358);
#300=VERTEX_POINT('',#359);
#301=LINE('',#360,#361);
#302=LINE('',#362,#363);
#303=FILL_AREA_STYLE_COLOUR('',#364);
#304=VERTEX_POINT('',#365);
#305=LINE('',#366,#367);
#306=VERTEX_POINT('',#368);
#307=LINE('',#369,#370);
#308=LINE('',#371,#372);
#309=FILL_AREA_STYLE_COLOUR('',#373);
#310=VERTEX_POINT('',#374);
#311=LINE('',#375,#376);
#312=VERTEX_POINT('',#377);
#313=LINE('',#378,#379);
#314=LINE('',#380,#381);
#315=FILL_AREA_STYLE_COLOUR('',#382);
#316=CIRCLE('',#383,6.0000000017);
#317=CIRCLE('',#384,6.0000000017);
#318=FILL_AREA_STYLE_COLOUR('',#385);
#319=FILL_AREA_STYLE_COLOUR('',#386);
#320=FILL_AREA_STYLE_COLOUR('',#387);
#321=COLOUR_RGB('',0.509803950786591,0.509803950786591,0.588235318660736);
#322=CARTESIAN_POINT('',(1000.0,-6.0000000034,6.00000000338599));
#323=CARTESIAN_POINT('',(0.0,-6.0000000034,6.00000000338599));
#324=CARTESIAN_POINT('',(0.0,-6.0000000034,6.00000000338599));
#325=VECTOR('',#388,1.0);
#326=CARTESIAN_POINT('',(1000.0,6.0,6.00000000001401));
#327=AXIS2_PLACEMENT_3D('',#389,#390,#391);
#328=CARTESIAN_POINT('',(0.0,6.0,6.00000000001401));
#329=CARTESIAN_POINT('',(0.0,6.0,6.00000000001401));
#330=VECTOR('',#392,1.0);
#331=AXIS2_PLACEMENT_3D('',#393,#394,#395);
#332=COLOUR_RGB('',0.509803950786591,0.509803950786591,0.588235318660736);
#333=CARTESIAN_POINT('',(1000.0,0.0,3.0));
#334=CARTESIAN_POINT('',(0.0,0.0,3.0));
#335=CARTESIAN_POINT('',(500.0,-3.67394039744206E-016,3.0));
#336=VECTOR('',#396,1.0);
#337=CARTESIAN_POINT('',(1000.0,3.67394039744206E-016,9.0));
#338=AXIS2_PLACEMENT_3D('',#397,#398,#399);
#339=CARTESIAN_POINT('',(0.0,3.67394039744206E-016,9.0));
#340=CARTESIAN_POINT('',(500.0,3.67394039744206E-016,9.0));
#341=VECTOR('',#400,1.0);
#342=AXIS2_PLACEMENT_3D('',#401,#402,#403);
#343=COLOUR_RGB('',0.509803950786591,0.509803950786591,0.588235318660736);
#344=AXIS2_PLACEMENT_3D('',#404,#405,#406);
#345=AXIS2_PLACEMENT_3D('',#407,#408,#409);
#346=COLOUR_RGB('',0.509803950786591,0.509803950786591,0.588235318660736);
#347=CARTESIAN_POINT('',(1000.0,6.0,4.0));
#348=CARTESIAN_POINT('',(1000.0,6.0,4.0));
#349=VECTOR('',#410,1.0);
#350=CARTESIAN_POINT('',(0.0,6.0,4.0));
#351=CARTESIAN_POINT('',(0.0,6.0,4.0));
#352=VECTOR('',#411,1.0);
#353=CARTESIAN_POINT('',(0.0,6.0,4.0));
#354=VECTOR('',#412,1.0);
#355=COLOUR_RGB('',0.509803950786591,0.509803950786591,0.588235318660736);
#356=CARTESIAN_POINT('',(1000.0,39.5,4.0));
#357=CARTESIAN_POINT('',(1000.0,39.5,4.0));
#358=VECTOR('',#413,1.0);
#359=CARTESIAN_POINT('',(0.0,39.5,4.0));
#360=CARTESIAN_POINT('',(0.0,39.5,4.0));
#361=VECTOR('',#414,1.0);
#362=CARTESIAN_POINT('',(0.0,39.5,4.0));
#363=VECTOR('',#415,1.0);
#364=COLOUR_RGB('',0.509803950786591,0.509803950786591,0.588235318660736);
#365=CARTESIAN_POINT('',(1000.0,39.5,0.0));
#366=CARTESIAN_POINT('',(1000.0,39.5,0.0));
#367=VECTOR('',#416,1.0);
#368=CARTESIAN_POINT('',(0.0,39.5,0.0));
#369=CARTESIAN_POINT('',(0.0,39.5,0.0));
#370=VECTOR('',#417,1.0);
#371=CARTESIAN_POINT('',(0.0,39.5,0.0));
#372=VECTOR('',#418,1.0);
#373=COLOUR_RGB('',0.509803950786591,0.509803950786591,0.588235318660736);
#374=CARTESIAN_POINT('',(1000.0,-1.40147803327531E-011,0.0));
#375=CARTESIAN_POINT('',(1000.0,0.0,0.0));
#376=VECTOR('',#419,1.0);
#377=CARTESIAN_POINT('',(0.0,-1.40147803327531E-011,0.0));
#378=CARTESIAN_POINT('',(0.0,-1.40147803327531E-011,0.0));
#379=VECTOR('',#420,1.0);
#380=CARTESIAN_POINT('',(0.0,0.0,0.0));
#381=VECTOR('',#421,1.0);
#382=COLOUR_RGB('',0.509803950786591,0.509803950786591,0.588235318660736);
#383=AXIS2_PLACEMENT_3D('',#422,#423,#424);
#384=AXIS2_PLACEMENT_3D('',#425,#426,#427);
#385=COLOUR_RGB('',0.509803950786591,0.509803950786591,0.588235318660736);
#386=COLOUR_RGB('',0.509803950786591,0.509803950786591,0.588235318660736);
#387=COLOUR_RGB('',0.509803950786591,0.509803950786591,0.588235318660736);
#388=DIRECTION('',(-1.0,-0.0,-0.0));
#389=CARTESIAN_POINT('',(1000.0,-1.70000102883705E-009,6.0000000017));
#390=DIRECTION('',(-1.0,0.0,-0.0));
#391=DIRECTION('',(0.0,1.0,-2.8099877972064E-010));
#392=DIRECTION('',(1.0,0.0,0.0));
#393=CARTESIAN_POINT('',(0.0,-1.70000102883705E-009,6.0000000017));
#394=DIRECTION('',(1.0,0.0,0.0));
#395=DIRECTION('',(0.0,1.0,-2.8099877972064E-010));
#396=DIRECTION('',(-1.0,0.0,0.0));
#397=CARTESIAN_POINT('',(1000.0,0.0,6.0));
#398=DIRECTION('',(-1.0,-0.0,-0.0));
#399=DIRECTION('',(0.0,0.0,-1.0));
#400=DIRECTION('',(1.0,0.0,0.0));
#401=CARTESIAN_POINT('',(0.0,0.0,6.0));
#402=DIRECTION('',(1.0,0.0,0.0));
#403=DIRECTION('',(0.0,0.0,-1.0));
#404=CARTESIAN_POINT('',(0.0,0.0,6.0));
#405=DIRECTION('',(1.0,0.0,0.0));
#406=DIRECTION('',(0.0,0.0,-1.0));
#407=CARTESIAN_POINT('',(1000.0,0.0,6.0));
#408=DIRECTION('',(-1.0,-0.0,-0.0));
#409=DIRECTION('',(0.0,0.0,-1.0));
#410=DIRECTION('',(-0.0,-0.0,-1.0));
#411=DIRECTION('',(1.0,0.0,0.0));
#412=DIRECTION('',(0.0,0.0,1.0));
#413=DIRECTION('',(0.0,1.0,0.0));
#414=DIRECTION('',(1.0,0.0,0.0));
#415=DIRECTION('',(0.0,-1.0,0.0));
#416=DIRECTION('',(-0.0,-0.0,-1.0));
#417=DIRECTION('',(1.0,0.0,0.0));
#418=DIRECTION('',(0.0,0.0,1.0));
#419=DIRECTION('',(-0.0,-1.0,-0.0));
#420=DIRECTION('',(1.0,0.0,0.0));
#421=DIRECTION('',(0.0,1.0,0.0));
#422=CARTESIAN_POINT('',(0.0,-1.70000102883705E-009,6.0000000017));
#423=DIRECTION('',(1.0,0.0,0.0));
#424=DIRECTION('',(0.0,1.0,-2.8099877972064E-010));
#425=CARTESIAN_POINT('',(1000.0,-1.70000102883705E-009,6.0000000017));
#426=DIRECTION('',(-1.0,0.0,-0.0));
#427=DIRECTION('',(0.0,1.0,-2.8099877972064E-010));
ENDSEC;
END-ISO-10303-21;
