ISO-10303-21;
HEADER;
FILE_DESCRIPTION(('STEP AP214'),'1');
FILE_NAME('cctmp_F3FD33D8-ADBE-4AFF-8AD3-9C2126B14316_2020_1_16_7_15_23_502..stp','2020-01-16T06:15:23',('Bosch Rexroth AG'),('CADClick - www.CADClick.com'),'Spatial InterOp 3D',' ','unknown authorization - (Healing Option Enabled)');
FILE_SCHEMA(('AUTOMOTIVE_DESIGN'));
ENDSEC;
DATA;
#1=MECHANICAL_DESIGN_GEOMETRIC_PRESENTATION_REPRESENTATION(' ',(#10,#11,#12,#13,#14,#15,#16,#17,#18,#19,#20,#21,#22,#23,#24),#6);
#2=PRODUCT_DEFINITION_CONTEXT('',#25,'design');
#3=APPLICATION_PROTOCOL_DEFINITION('INTERNATIONAL STANDARD','automotive_design',1994,#25);
#4=PRODUCT_CATEGORY_RELATIONSHIP('NONE','NONE',#26,#27);
#5=SHAPE_DEFINITION_REPRESENTATION(#28,#29);
#6= (GEOMETRIC_REPRESENTATION_CONTEXT(3)GLOBAL_UNCERTAINTY_ASSIGNED_CONTEXT((#32))GLOBAL_UNIT_ASSIGNED_CONTEXT((#34,#35,#36))REPRESENTATION_CONTEXT('NONE','WORKSPACE'));
#10=STYLED_ITEM('',(#38),#39);
#11=STYLED_ITEM('',(#40),#41);
#12=STYLED_ITEM('',(#42),#43);
#13=STYLED_ITEM('',(#44),#45);
#14=STYLED_ITEM('',(#46),#47);
#15=STYLED_ITEM('',(#48),#49);
#16=STYLED_ITEM('',(#50),#51);
#17=STYLED_ITEM('',(#52),#53);
#18=STYLED_ITEM('',(#54),#55);
#19=STYLED_ITEM('',(#56),#57);
#20=STYLED_ITEM('',(#58),#59);
#21=STYLED_ITEM('',(#60),#61);
#22=STYLED_ITEM('',(#62),#63);
#23=STYLED_ITEM('',(#64),#65);
#24=STYLED_ITEM('',(#66),#67);
#25=APPLICATION_CONTEXT(' ');
#26=PRODUCT_CATEGORY('part','NONE');
#27=PRODUCT_RELATED_PRODUCT_CATEGORY('detail',' ',(#68));
#28=PRODUCT_DEFINITION_SHAPE('NONE','NONE',#69);
#29=ADVANCED_BREP_SHAPE_REPRESENTATION('2020_01_16__07-15-23-500',(#67,#70),#6);
#32=UNCERTAINTY_MEASURE_WITH_UNIT(LENGTH_MEASURE(1.0E-006),#34,'','');
#34= (CONVERSION_BASED_UNIT('MILLIMETRE',#73)LENGTH_UNIT()NAMED_UNIT(#76));
#35= (NAMED_UNIT(#78)PLANE_ANGLE_UNIT()SI_UNIT($,.RADIAN.));
#36= (NAMED_UNIT(#78)SOLID_ANGLE_UNIT()SI_UNIT($,.STERADIAN.));
#38=PRESENTATION_STYLE_ASSIGNMENT((#84));
#39=ADVANCED_FACE('NONE',(#85),#86,.F.);
#40=PRESENTATION_STYLE_ASSIGNMENT((#87));
#41=ADVANCED_FACE('NONE',(#88),#89,.F.);
#42=PRESENTATION_STYLE_ASSIGNMENT((#90));
#43=ADVANCED_FACE('NONE',(#91),#92,.F.);
#44=PRESENTATION_STYLE_ASSIGNMENT((#93));
#45=ADVANCED_FACE('NONE',(#94),#95,.T.);
#46=PRESENTATION_STYLE_ASSIGNMENT((#96));
#47=ADVANCED_FACE('NONE',(#97),#98,.T.);
#48=PRESENTATION_STYLE_ASSIGNMENT((#99));
#49=ADVANCED_FACE('NONE',(#100),#101,.F.);
#50=PRESENTATION_STYLE_ASSIGNMENT((#102));
#51=ADVANCED_FACE('NONE',(#103),#104,.F.);
#52=PRESENTATION_STYLE_ASSIGNMENT((#105));
#53=ADVANCED_FACE('NONE',(#106),#107,.F.);
#54=PRESENTATION_STYLE_ASSIGNMENT((#108));
#55=ADVANCED_FACE('NONE',(#109),#110,.T.);
#56=PRESENTATION_STYLE_ASSIGNMENT((#111));
#57=ADVANCED_FACE('NONE',(#112),#113,.F.);
#58=PRESENTATION_STYLE_ASSIGNMENT((#114));
#59=ADVANCED_FACE('NONE',(#115),#116,.T.);
#60=PRESENTATION_STYLE_ASSIGNMENT((#117));
#61=ADVANCED_FACE('NONE',(#118),#119,.T.);
#62=PRESENTATION_STYLE_ASSIGNMENT((#120));
#63=ADVANCED_FACE('NONE',(#121),#122,.T.);
#64=PRESENTATION_STYLE_ASSIGNMENT((#123));
#65=ADVANCED_FACE('NONE',(#124),#125,.T.);
#66=PRESENTATION_STYLE_ASSIGNMENT((#126));
#67=MANIFOLD_SOLID_BREP('2020_01_16__07-15-23-500',#127);
#68=PRODUCT('2020_01_16__07-15-23-500','','PART--DESC',(#128));
#69=PRODUCT_DEFINITION('','NONE',#129,#2);
#70=AXIS2_PLACEMENT_3D('',#130,#131,#132);
#73=LENGTH_MEASURE_WITH_UNIT(LENGTH_MEASURE(1.0),#133);
#76=DIMENSIONAL_EXPONENTS(1.0,0.0,0.0,0.0,0.0,0.0,0.0);
#78=DIMENSIONAL_EXPONENTS(0.0,0.0,0.0,0.0,0.0,0.0,0.0);
#84=SURFACE_STYLE_USAGE(.BOTH.,#134);
#85=FACE_OUTER_BOUND('',#135,.T.);
#86=CYLINDRICAL_SURFACE('',#136,14.0);
#87=SURFACE_STYLE_USAGE(.BOTH.,#137);
#88=FACE_OUTER_BOUND('',#138,.T.);
#89=PLANE('',#139);
#90=SURFACE_STYLE_USAGE(.BOTH.,#140);
#91=FACE_OUTER_BOUND('',#141,.T.);
#92=PLANE('',#142);
#93=SURFACE_STYLE_USAGE(.BOTH.,#143);
#94=FACE_OUTER_BOUND('',#144,.T.);
#95=PLANE('',#145);
#96=SURFACE_STYLE_USAGE(.BOTH.,#146);
#97=FACE_OUTER_BOUND('',#147,.T.);
#98=PLANE('',#148);
#99=SURFACE_STYLE_USAGE(.BOTH.,#149);
#100=FACE_OUTER_BOUND('',#150,.T.);
#101=PLANE('',#151);
#102=SURFACE_STYLE_USAGE(.BOTH.,#152);
#103=FACE_OUTER_BOUND('',#153,.T.);
#104=PLANE('',#154);
#105=SURFACE_STYLE_USAGE(.BOTH.,#155);
#106=FACE_OUTER_BOUND('',#156,.T.);
#107=PLANE('',#157);
#108=SURFACE_STYLE_USAGE(.BOTH.,#158);
#109=FACE_OUTER_BOUND('',#159,.T.);
#110=PLANE('',#160);
#111=SURFACE_STYLE_USAGE(.BOTH.,#161);
#112=FACE_OUTER_BOUND('',#162,.T.);
#113=PLANE('',#163);
#114=SURFACE_STYLE_USAGE(.BOTH.,#164);
#115=FACE_OUTER_BOUND('',#165,.T.);
#116=PLANE('',#166);
#117=SURFACE_STYLE_USAGE(.BOTH.,#167);
#118=FACE_OUTER_BOUND('',#168,.T.);
#119=PLANE('',#169);
#120=SURFACE_STYLE_USAGE(.BOTH.,#170);
#121=FACE_OUTER_BOUND('',#171,.T.);
#122=PLANE('',#172);
#123=SURFACE_STYLE_USAGE(.BOTH.,#173);
#124=FACE_OUTER_BOUND('',#174,.T.);
#125=CYLINDRICAL_SURFACE('',#175,17.0);
#126=SURFACE_STYLE_USAGE(.BOTH.,#176);
#127=CLOSED_SHELL('',(#39,#41,#43,#45,#47,#49,#51,#53,#55,#57,#59,#61,#63,#65));
#128=PRODUCT_CONTEXT('',#25,'mechanical');
#129=PRODUCT_DEFINITION_FORMATION_WITH_SPECIFIED_SOURCE(' ','NONE',#68,.NOT_KNOWN.);
#130=CARTESIAN_POINT('',(0.0,0.0,0.0));
#131=DIRECTION('',(0.0,0.0,1.0));
#132=DIRECTION('',(1.0,0.0,0.0));
#133= (NAMED_UNIT(#76)LENGTH_UNIT()SI_UNIT(.MILLI.,.METRE.));
#134=SURFACE_SIDE_STYLE('',(#178));
#135=EDGE_LOOP('',(#179,#180,#181,#182));
#136=AXIS2_PLACEMENT_3D('',#183,#184,#185);
#137=SURFACE_SIDE_STYLE('',(#186));
#138=EDGE_LOOP('',(#187,#188,#189,#190));
#139=AXIS2_PLACEMENT_3D('',#191,#192,#193);
#140=SURFACE_SIDE_STYLE('',(#194));
#141=EDGE_LOOP('',(#195,#196,#197,#198));
#142=AXIS2_PLACEMENT_3D('',#199,#200,#201);
#143=SURFACE_SIDE_STYLE('',(#202));
#144=EDGE_LOOP('',(#203,#204,#205,#206));
#145=AXIS2_PLACEMENT_3D('',#207,#208,#209);
#146=SURFACE_SIDE_STYLE('',(#210));
#147=EDGE_LOOP('',(#211,#212,#213,#214));
#148=AXIS2_PLACEMENT_3D('',#215,#216,#217);
#149=SURFACE_SIDE_STYLE('',(#218));
#150=EDGE_LOOP('',(#219,#220,#221,#222));
#151=AXIS2_PLACEMENT_3D('',#223,#224,#225);
#152=SURFACE_SIDE_STYLE('',(#226));
#153=EDGE_LOOP('',(#227,#228,#229,#230));
#154=AXIS2_PLACEMENT_3D('',#231,#232,#233);
#155=SURFACE_SIDE_STYLE('',(#234));
#156=EDGE_LOOP('',(#235,#236,#237,#238));
#157=AXIS2_PLACEMENT_3D('',#239,#240,#241);
#158=SURFACE_SIDE_STYLE('',(#242));
#159=EDGE_LOOP('',(#243,#244,#245,#246));
#160=AXIS2_PLACEMENT_3D('',#247,#248,#249);
#161=SURFACE_SIDE_STYLE('',(#250));
#162=EDGE_LOOP('',(#251,#252,#253,#254,#255,#256,#257,#258,#259,#260,#261,#262));
#163=AXIS2_PLACEMENT_3D('',#263,#264,#265);
#164=SURFACE_SIDE_STYLE('',(#266));
#165=EDGE_LOOP('',(#267,#268,#269,#270));
#166=AXIS2_PLACEMENT_3D('',#271,#272,#273);
#167=SURFACE_SIDE_STYLE('',(#274));
#168=EDGE_LOOP('',(#275,#276,#277,#278,#279,#280,#281,#282,#283,#284,#285,#286));
#169=AXIS2_PLACEMENT_3D('',#287,#288,#289);
#170=SURFACE_SIDE_STYLE('',(#290));
#171=EDGE_LOOP('',(#291,#292,#293,#294));
#172=AXIS2_PLACEMENT_3D('',#295,#296,#297);
#173=SURFACE_SIDE_STYLE('',(#298));
#174=EDGE_LOOP('',(#299,#300,#301,#302));
#175=AXIS2_PLACEMENT_3D('',#303,#304,#305);
#176=SURFACE_SIDE_STYLE('',(#306));
#178=SURFACE_STYLE_FILL_AREA(#307);
#179=ORIENTED_EDGE('',*,*,#308,.T.);
#180=ORIENTED_EDGE('',*,*,#309,.T.);
#181=ORIENTED_EDGE('',*,*,#310,.F.);
#182=ORIENTED_EDGE('',*,*,#311,.T.);
#183=CARTESIAN_POINT('',(-2.8421709430404E-014,-14.5,32.5));
#184=DIRECTION('',(0.0,0.0,1.0));
#185=DIRECTION('',(-1.0,0.0,0.0));
#186=SURFACE_STYLE_FILL_AREA(#312);
#187=ORIENTED_EDGE('',*,*,#313,.F.);
#188=ORIENTED_EDGE('',*,*,#309,.F.);
#189=ORIENTED_EDGE('',*,*,#314,.T.);
#190=ORIENTED_EDGE('',*,*,#315,.T.);
#191=CARTESIAN_POINT('',(14.0,-14.5,32.5));
#192=DIRECTION('',(1.0,5.39760534693403E-079,1.09476442525376E-047));
#193=DIRECTION('',(0.0,1.0,-4.93038065763132E-032));
#194=SURFACE_STYLE_FILL_AREA(#316);
#195=ORIENTED_EDGE('',*,*,#317,.F.);
#196=ORIENTED_EDGE('',*,*,#315,.F.);
#197=ORIENTED_EDGE('',*,*,#318,.T.);
#198=ORIENTED_EDGE('',*,*,#319,.F.);
#199=CARTESIAN_POINT('',(18.0,-28.0,32.5));
#200=DIRECTION('',(0.0,1.0,0.0));
#201=DIRECTION('',(1.0,0.0,-0.0));
#202=SURFACE_STYLE_FILL_AREA(#320);
#203=ORIENTED_EDGE('',*,*,#321,.T.);
#204=ORIENTED_EDGE('',*,*,#322,.F.);
#205=ORIENTED_EDGE('',*,*,#323,.F.);
#206=ORIENTED_EDGE('',*,*,#319,.T.);
#207=CARTESIAN_POINT('',(47.5,-26.5,0.0));
#208=DIRECTION('',(1.0,5.39760534693403E-079,1.09476442525376E-047));
#209=DIRECTION('',(0.0,1.0,-4.93038065763132E-032));
#210=SURFACE_STYLE_FILL_AREA(#324);
#211=ORIENTED_EDGE('',*,*,#325,.T.);
#212=ORIENTED_EDGE('',*,*,#326,.F.);
#213=ORIENTED_EDGE('',*,*,#327,.F.);
#214=ORIENTED_EDGE('',*,*,#328,.T.);
#215=CARTESIAN_POINT('',(-47.5,-25.0,32.5));
#216=DIRECTION('',(0.0,1.0,0.0));
#217=DIRECTION('',(1.0,0.0,-0.0));
#218=SURFACE_STYLE_FILL_AREA(#329);
#219=ORIENTED_EDGE('',*,*,#330,.F.);
#220=ORIENTED_EDGE('',*,*,#325,.F.);
#221=ORIENTED_EDGE('',*,*,#331,.T.);
#222=ORIENTED_EDGE('',*,*,#332,.T.);
#223=CARTESIAN_POINT('',(-47.5,-26.5,0.0));
#224=DIRECTION('',(1.0,5.39760534693403E-079,1.09476442525376E-047));
#225=DIRECTION('',(0.0,1.0,-4.93038065763132E-032));
#226=SURFACE_STYLE_FILL_AREA(#333);
#227=ORIENTED_EDGE('',*,*,#334,.T.);
#228=ORIENTED_EDGE('',*,*,#335,.T.);
#229=ORIENTED_EDGE('',*,*,#336,.F.);
#230=ORIENTED_EDGE('',*,*,#332,.F.);
#231=CARTESIAN_POINT('',(-47.5,-28.0,32.5));
#232=DIRECTION('',(0.0,1.0,0.0));
#233=DIRECTION('',(1.0,0.0,-0.0));
#234=SURFACE_STYLE_FILL_AREA(#337);
#235=ORIENTED_EDGE('',*,*,#311,.F.);
#236=ORIENTED_EDGE('',*,*,#338,.F.);
#237=ORIENTED_EDGE('',*,*,#335,.F.);
#238=ORIENTED_EDGE('',*,*,#339,.T.);
#239=CARTESIAN_POINT('',(-14.0,-24.0,32.5));
#240=DIRECTION('',(-1.0,0.0,-2.22044604925031E-016));
#241=DIRECTION('',(-2.22044604925031E-016,0.0,1.0));
#242=SURFACE_STYLE_FILL_AREA(#340);
#243=ORIENTED_EDGE('',*,*,#341,.T.);
#244=ORIENTED_EDGE('',*,*,#342,.F.);
#245=ORIENTED_EDGE('',*,*,#343,.F.);
#246=ORIENTED_EDGE('',*,*,#322,.T.);
#247=CARTESIAN_POINT('',(18.0,-25.0,32.5));
#248=DIRECTION('',(0.0,1.0,0.0));
#249=DIRECTION('',(1.0,0.0,-0.0));
#250=SURFACE_STYLE_FILL_AREA(#344);
#251=ORIENTED_EDGE('',*,*,#345,.F.);
#252=ORIENTED_EDGE('',*,*,#341,.F.);
#253=ORIENTED_EDGE('',*,*,#321,.F.);
#254=ORIENTED_EDGE('',*,*,#318,.F.);
#255=ORIENTED_EDGE('',*,*,#314,.F.);
#256=ORIENTED_EDGE('',*,*,#308,.F.);
#257=ORIENTED_EDGE('',*,*,#339,.F.);
#258=ORIENTED_EDGE('',*,*,#334,.F.);
#259=ORIENTED_EDGE('',*,*,#331,.F.);
#260=ORIENTED_EDGE('',*,*,#328,.F.);
#261=ORIENTED_EDGE('',*,*,#346,.F.);
#262=ORIENTED_EDGE('',*,*,#347,.F.);
#263=CARTESIAN_POINT('',(-16.23223304703,-25.767766952966,-32.5));
#264=DIRECTION('',(-5.39760534693403E-079,4.93038065763132E-032,1.0));
#265=DIRECTION('',(1.0,1.09476442525376E-047,0.0));
#266=SURFACE_STYLE_FILL_AREA(#348);
#267=ORIENTED_EDGE('',*,*,#349,.F.);
#268=ORIENTED_EDGE('',*,*,#350,.F.);
#269=ORIENTED_EDGE('',*,*,#346,.T.);
#270=ORIENTED_EDGE('',*,*,#327,.T.);
#271=CARTESIAN_POINT('',(-17.0,-24.0,32.5));
#272=DIRECTION('',(-1.0,0.0,-2.22044604925031E-016));
#273=DIRECTION('',(-2.22044604925031E-016,0.0,1.0));
#274=SURFACE_STYLE_FILL_AREA(#351);
#275=ORIENTED_EDGE('',*,*,#336,.T.);
#276=ORIENTED_EDGE('',*,*,#338,.T.);
#277=ORIENTED_EDGE('',*,*,#310,.T.);
#278=ORIENTED_EDGE('',*,*,#313,.T.);
#279=ORIENTED_EDGE('',*,*,#317,.T.);
#280=ORIENTED_EDGE('',*,*,#323,.T.);
#281=ORIENTED_EDGE('',*,*,#343,.T.);
#282=ORIENTED_EDGE('',*,*,#352,.F.);
#283=ORIENTED_EDGE('',*,*,#353,.F.);
#284=ORIENTED_EDGE('',*,*,#349,.T.);
#285=ORIENTED_EDGE('',*,*,#326,.T.);
#286=ORIENTED_EDGE('',*,*,#330,.T.);
#287=CARTESIAN_POINT('',(-16.23223304703,-25.767766952966,32.5));
#288=DIRECTION('',(-5.39760534693403E-079,4.93038065763132E-032,1.0));
#289=DIRECTION('',(1.0,1.09476442525376E-047,0.0));
#290=SURFACE_STYLE_FILL_AREA(#354);
#291=ORIENTED_EDGE('',*,*,#345,.T.);
#292=ORIENTED_EDGE('',*,*,#355,.F.);
#293=ORIENTED_EDGE('',*,*,#352,.T.);
#294=ORIENTED_EDGE('',*,*,#342,.T.);
#295=CARTESIAN_POINT('',(17.0,-14.5,32.5));
#296=DIRECTION('',(1.0,5.39760534693403E-079,1.09476442525376E-047));
#297=DIRECTION('',(0.0,1.0,-4.93038065763132E-032));
#298=SURFACE_STYLE_FILL_AREA(#356);
#299=ORIENTED_EDGE('',*,*,#353,.T.);
#300=ORIENTED_EDGE('',*,*,#355,.T.);
#301=ORIENTED_EDGE('',*,*,#347,.T.);
#302=ORIENTED_EDGE('',*,*,#350,.T.);
#303=CARTESIAN_POINT('',(-2.8421709430404E-014,-14.5,32.5));
#304=DIRECTION('',(-4.08170229641602E-016,0.0,1.0));
#305=DIRECTION('',(-1.0,0.0,-4.08170229641602E-016));
#306=SURFACE_STYLE_FILL_AREA(#357);
#307=FILL_AREA_STYLE('',(#358));
#308=EDGE_CURVE('NONE',#359,#360,#361,.T.);
#309=EDGE_CURVE('NONE',#360,#362,#363,.T.);
#310=EDGE_CURVE('NONE',#364,#362,#365,.T.);
#311=EDGE_CURVE('NONE',#364,#359,#366,.T.);
#312=FILL_AREA_STYLE('',(#367));
#313=EDGE_CURVE('NONE',#362,#368,#369,.T.);
#314=EDGE_CURVE('NONE',#360,#370,#371,.T.);
#315=EDGE_CURVE('NONE',#370,#368,#372,.T.);
#316=FILL_AREA_STYLE('',(#373));
#317=EDGE_CURVE('NONE',#368,#374,#375,.T.);
#318=EDGE_CURVE('NONE',#370,#376,#377,.T.);
#319=EDGE_CURVE('NONE',#374,#376,#378,.T.);
#320=FILL_AREA_STYLE('',(#379));
#321=EDGE_CURVE('NONE',#376,#380,#381,.T.);
#322=EDGE_CURVE('NONE',#382,#380,#383,.T.);
#323=EDGE_CURVE('NONE',#374,#382,#384,.T.);
#324=FILL_AREA_STYLE('',(#385));
#325=EDGE_CURVE('NONE',#386,#387,#388,.T.);
#326=EDGE_CURVE('NONE',#389,#387,#390,.T.);
#327=EDGE_CURVE('NONE',#391,#389,#392,.T.);
#328=EDGE_CURVE('NONE',#391,#386,#393,.T.);
#329=FILL_AREA_STYLE('',(#394));
#330=EDGE_CURVE('NONE',#387,#395,#396,.T.);
#331=EDGE_CURVE('NONE',#386,#397,#398,.T.);
#332=EDGE_CURVE('NONE',#397,#395,#399,.T.);
#333=FILL_AREA_STYLE('',(#400));
#334=EDGE_CURVE('NONE',#397,#401,#402,.T.);
#335=EDGE_CURVE('NONE',#401,#403,#404,.T.);
#336=EDGE_CURVE('NONE',#395,#403,#405,.T.);
#337=FILL_AREA_STYLE('',(#406));
#338=EDGE_CURVE('NONE',#403,#364,#407,.T.);
#339=EDGE_CURVE('NONE',#401,#359,#408,.T.);
#340=FILL_AREA_STYLE('',(#409));
#341=EDGE_CURVE('NONE',#380,#410,#411,.T.);
#342=EDGE_CURVE('NONE',#412,#410,#413,.T.);
#343=EDGE_CURVE('NONE',#382,#412,#414,.T.);
#344=FILL_AREA_STYLE('',(#415));
#345=EDGE_CURVE('NONE',#410,#416,#417,.T.);
#346=EDGE_CURVE('NONE',#418,#391,#419,.T.);
#347=EDGE_CURVE('NONE',#416,#418,#420,.T.);
#348=FILL_AREA_STYLE('',(#421));
#349=EDGE_CURVE('NONE',#422,#389,#423,.T.);
#350=EDGE_CURVE('NONE',#418,#422,#424,.T.);
#351=FILL_AREA_STYLE('',(#425));
#352=EDGE_CURVE('NONE',#426,#412,#427,.T.);
#353=EDGE_CURVE('NONE',#422,#426,#428,.T.);
#354=FILL_AREA_STYLE('',(#429));
#355=EDGE_CURVE('NONE',#426,#416,#430,.T.);
#356=FILL_AREA_STYLE('',(#431));
#357=FILL_AREA_STYLE('',(#432));
#358=FILL_AREA_STYLE_COLOUR('',#433);
#359=VERTEX_POINT('NONE',#434);
#360=VERTEX_POINT('NONE',#435);
#361=CIRCLE('',#436,14.0);
#362=VERTEX_POINT('NONE',#437);
#363=LINE('',#438,#439);
#364=VERTEX_POINT('NONE',#440);
#365=CIRCLE('',#441,14.0);
#366=LINE('',#442,#443);
#367=FILL_AREA_STYLE_COLOUR('',#444);
#368=VERTEX_POINT('NONE',#445);
#369=LINE('',#446,#447);
#370=VERTEX_POINT('NONE',#448);
#371=LINE('',#449,#450);
#372=LINE('',#451,#452);
#373=FILL_AREA_STYLE_COLOUR('',#453);
#374=VERTEX_POINT('NONE',#454);
#375=LINE('',#455,#456);
#376=VERTEX_POINT('NONE',#457);
#377=LINE('',#458,#459);
#378=LINE('',#460,#461);
#379=FILL_AREA_STYLE_COLOUR('',#462);
#380=VERTEX_POINT('NONE',#463);
#381=LINE('',#464,#465);
#382=VERTEX_POINT('NONE',#466);
#383=LINE('',#467,#468);
#384=LINE('',#469,#470);
#385=FILL_AREA_STYLE_COLOUR('',#471);
#386=VERTEX_POINT('NONE',#472);
#387=VERTEX_POINT('NONE',#473);
#388=LINE('',#474,#475);
#389=VERTEX_POINT('NONE',#476);
#390=LINE('',#477,#478);
#391=VERTEX_POINT('NONE',#479);
#392=LINE('',#480,#481);
#393=LINE('',#482,#483);
#394=FILL_AREA_STYLE_COLOUR('',#484);
#395=VERTEX_POINT('NONE',#485);
#396=LINE('',#486,#487);
#397=VERTEX_POINT('NONE',#488);
#398=LINE('',#489,#490);
#399=LINE('',#491,#492);
#400=FILL_AREA_STYLE_COLOUR('',#493);
#401=VERTEX_POINT('NONE',#494);
#402=LINE('',#495,#496);
#403=VERTEX_POINT('NONE',#497);
#404=LINE('',#498,#499);
#405=LINE('',#500,#501);
#406=FILL_AREA_STYLE_COLOUR('',#502);
#407=LINE('',#503,#504);
#408=LINE('',#505,#506);
#409=FILL_AREA_STYLE_COLOUR('',#507);
#410=VERTEX_POINT('NONE',#508);
#411=LINE('',#509,#510);
#412=VERTEX_POINT('NONE',#511);
#413=LINE('',#512,#513);
#414=LINE('',#514,#515);
#415=FILL_AREA_STYLE_COLOUR('',#516);
#416=VERTEX_POINT('NONE',#517);
#417=LINE('',#518,#519);
#418=VERTEX_POINT('NONE',#520);
#419=LINE('',#521,#522);
#420=CIRCLE('',#523,17.0);
#421=FILL_AREA_STYLE_COLOUR('',#524);
#422=VERTEX_POINT('NONE',#525);
#423=LINE('',#526,#527);
#424=LINE('',#528,#529);
#425=FILL_AREA_STYLE_COLOUR('',#530);
#426=VERTEX_POINT('NONE',#531);
#427=LINE('',#532,#533);
#428=CIRCLE('',#534,17.0);
#429=FILL_AREA_STYLE_COLOUR('',#535);
#430=LINE('',#536,#537);
#431=FILL_AREA_STYLE_COLOUR('',#538);
#432=FILL_AREA_STYLE_COLOUR('',#539);
#433=COLOUR_RGB('',0.509803950786591,0.509803950786591,0.588235318660736);
#434=CARTESIAN_POINT('',(-14.0,-14.5,-32.5));
#435=CARTESIAN_POINT('',(14.0,-14.5,-32.5));
#436=AXIS2_PLACEMENT_3D('',#540,#541,#542);
#437=CARTESIAN_POINT('',(14.0,-14.5,32.5));
#438=CARTESIAN_POINT('',(14.0,-14.5,32.5));
#439=VECTOR('',#543,1000.0);
#440=CARTESIAN_POINT('',(-14.0,-14.5,32.5));
#441=AXIS2_PLACEMENT_3D('',#544,#545,#546);
#442=CARTESIAN_POINT('',(-14.0,-14.5,32.5));
#443=VECTOR('',#547,1000.0);
#444=COLOUR_RGB('',0.509803950786591,0.509803950786591,0.588235318660736);
#445=CARTESIAN_POINT('',(14.0,-28.0,32.5));
#446=CARTESIAN_POINT('',(14.0,-25.767766952966,32.5));
#447=VECTOR('',#548,1000.0);
#448=CARTESIAN_POINT('',(14.0,-28.0,-32.5));
#449=CARTESIAN_POINT('',(14.0,-25.767766952966,-32.5));
#450=VECTOR('',#549,1000.0);
#451=CARTESIAN_POINT('',(14.0,-28.0,32.5));
#452=VECTOR('',#550,1000.0);
#453=COLOUR_RGB('',0.509803950786591,0.509803950786591,0.588235318660736);
#454=CARTESIAN_POINT('',(47.5,-28.0,32.5));
#455=CARTESIAN_POINT('',(-16.23223304703,-28.0,32.5));
#456=VECTOR('',#551,1000.0);
#457=CARTESIAN_POINT('',(47.5,-28.0,-32.5));
#458=CARTESIAN_POINT('',(-16.23223304703,-28.0,-32.5));
#459=VECTOR('',#552,1000.0);
#460=CARTESIAN_POINT('',(47.5,-28.0,0.0));
#461=VECTOR('',#553,1000.0);
#462=COLOUR_RGB('',0.509803950786591,0.509803950786591,0.588235318660736);
#463=CARTESIAN_POINT('',(47.5,-25.0,-32.5));
#464=CARTESIAN_POINT('',(47.5,-25.767766952966,-32.5));
#465=VECTOR('',#554,1000.0);
#466=CARTESIAN_POINT('',(47.5,-25.0,32.5));
#467=CARTESIAN_POINT('',(47.5,-25.0,32.5));
#468=VECTOR('',#555,1000.0);
#469=CARTESIAN_POINT('',(47.5,-25.767766952966,32.5));
#470=VECTOR('',#556,1000.0);
#471=COLOUR_RGB('',0.509803950786591,0.509803950786591,0.588235318660736);
#472=CARTESIAN_POINT('',(-47.5,-25.0,-32.5));
#473=CARTESIAN_POINT('',(-47.5,-25.0,32.5));
#474=CARTESIAN_POINT('',(-47.5,-25.0,0.0));
#475=VECTOR('',#557,1000.0);
#476=CARTESIAN_POINT('',(-17.0,-25.0,32.5));
#477=CARTESIAN_POINT('',(-16.23223304703,-25.0,32.5));
#478=VECTOR('',#558,1000.0);
#479=CARTESIAN_POINT('',(-17.0,-25.0,-32.5));
#480=CARTESIAN_POINT('',(-17.0,-25.0,32.5));
#481=VECTOR('',#559,1000.0);
#482=CARTESIAN_POINT('',(-16.23223304703,-25.0,-32.5));
#483=VECTOR('',#560,1000.0);
#484=COLOUR_RGB('',0.509803950786591,0.509803950786591,0.588235318660736);
#485=CARTESIAN_POINT('',(-47.5,-28.0,32.5));
#486=CARTESIAN_POINT('',(-47.5,-25.767766952966,32.5));
#487=VECTOR('',#561,1000.0);
#488=CARTESIAN_POINT('',(-47.5,-28.0,-32.5));
#489=CARTESIAN_POINT('',(-47.5,-25.767766952966,-32.5));
#490=VECTOR('',#562,1000.0);
#491=CARTESIAN_POINT('',(-47.5,-28.0,32.5));
#492=VECTOR('',#563,1000.0);
#493=COLOUR_RGB('',0.509803950786591,0.509803950786591,0.588235318660736);
#494=CARTESIAN_POINT('',(-14.0,-28.0,-32.5));
#495=CARTESIAN_POINT('',(-16.23223304703,-28.0,-32.5));
#496=VECTOR('',#564,1000.0);
#497=CARTESIAN_POINT('',(-14.0,-28.0,32.5));
#498=CARTESIAN_POINT('',(-14.0,-28.0,32.5));
#499=VECTOR('',#565,1000.0);
#500=CARTESIAN_POINT('',(-16.23223304703,-28.0,32.5));
#501=VECTOR('',#566,1000.0);
#502=COLOUR_RGB('',0.509803950786591,0.509803950786591,0.588235318660736);
#503=CARTESIAN_POINT('',(-14.0,-25.767766952966,32.5));
#504=VECTOR('',#567,1000.0);
#505=CARTESIAN_POINT('',(-14.0,-25.767766952966,-32.5));
#506=VECTOR('',#568,1000.0);
#507=COLOUR_RGB('',0.509803950786591,0.509803950786591,0.588235318660736);
#508=CARTESIAN_POINT('',(17.0,-25.0,-32.5));
#509=CARTESIAN_POINT('',(-16.23223304703,-25.0,-32.5));
#510=VECTOR('',#569,1000.0);
#511=CARTESIAN_POINT('',(17.0,-25.0,32.5));
#512=CARTESIAN_POINT('',(17.0,-25.0,32.5));
#513=VECTOR('',#570,1000.0);
#514=CARTESIAN_POINT('',(-16.23223304703,-25.0,32.5));
#515=VECTOR('',#571,1000.0);
#516=COLOUR_RGB('',0.509803950786591,0.509803950786591,0.588235318660736);
#517=CARTESIAN_POINT('',(17.0,-14.5,-32.5));
#518=CARTESIAN_POINT('',(17.0,-14.5,-32.5));
#519=VECTOR('',#572,1000.0);
#520=CARTESIAN_POINT('',(-17.0,-14.5,-32.5));
#521=CARTESIAN_POINT('',(-17.0,-24.0,-32.5));
#522=VECTOR('',#573,1000.0);
#523=AXIS2_PLACEMENT_3D('',#574,#575,#576);
#524=COLOUR_RGB('',0.509803950786591,0.509803950786591,0.588235318660736);
#525=CARTESIAN_POINT('',(-17.0,-14.5,32.5));
#526=CARTESIAN_POINT('',(-17.0,-25.767766952966,32.5));
#527=VECTOR('',#577,1000.0);
#528=CARTESIAN_POINT('',(-17.0,-14.5,32.5));
#529=VECTOR('',#578,1000.0);
#530=COLOUR_RGB('',0.509803950786591,0.509803950786591,0.588235318660736);
#531=CARTESIAN_POINT('',(17.0,-14.5,32.5));
#532=CARTESIAN_POINT('',(17.0,-14.5,32.5));
#533=VECTOR('',#579,1000.0);
#534=AXIS2_PLACEMENT_3D('',#580,#581,#582);
#535=COLOUR_RGB('',0.509803950786591,0.509803950786591,0.588235318660736);
#536=CARTESIAN_POINT('',(17.0,-14.5,32.5));
#537=VECTOR('',#583,1000.0);
#538=COLOUR_RGB('',0.509803950786591,0.509803950786591,0.588235318660736);
#539=COLOUR_RGB('',0.509803950786591,0.509803950786591,0.588235318660736);
#540=CARTESIAN_POINT('',(-1.3988810110277E-014,-14.5,-32.5));
#541=DIRECTION('',(0.0,0.0,-1.0));
#542=DIRECTION('',(-1.0,0.0,0.0));
#543=DIRECTION('',(-1.09476442525376E-047,-5.39760534693403E-079,1.0));
#544=CARTESIAN_POINT('',(-2.8421709430404E-014,-14.5,32.5));
#545=DIRECTION('',(0.0,0.0,-1.0));
#546=DIRECTION('',(-1.0,0.0,0.0));
#547=DIRECTION('',(2.22044604925031E-016,0.0,-1.0));
#548=DIRECTION('',(0.0,-1.0,4.93038065763132E-032));
#549=DIRECTION('',(0.0,-1.0,4.93038065763132E-032));
#550=DIRECTION('',(0.0,0.0,1.0));
#551=DIRECTION('',(1.0,5.39760534693403E-079,1.09476442525376E-047));
#552=DIRECTION('',(1.0,5.39760534693403E-079,1.09476442525376E-047));
#553=DIRECTION('',(1.09476442525376E-047,5.39760534693403E-079,-1.0));
#554=DIRECTION('',(0.0,1.0,-4.93038065763132E-032));
#555=DIRECTION('',(0.0,0.0,-1.0));
#556=DIRECTION('',(0.0,1.0,-4.93038065763132E-032));
#557=DIRECTION('',(-1.09476442525376E-047,-5.39760534693403E-079,1.0));
#558=DIRECTION('',(-1.0,-5.39760534693403E-079,-1.09476442525376E-047));
#559=DIRECTION('',(-2.22044604925031E-016,0.0,1.0));
#560=DIRECTION('',(-1.0,-5.39760534693403E-079,-1.09476442525376E-047));
#561=DIRECTION('',(0.0,-1.0,4.93038065763132E-032));
#562=DIRECTION('',(0.0,-1.0,4.93038065763132E-032));
#563=DIRECTION('',(0.0,0.0,1.0));
#564=DIRECTION('',(1.0,5.39760534693403E-079,1.09476442525376E-047));
#565=DIRECTION('',(-2.22044604925031E-016,0.0,1.0));
#566=DIRECTION('',(1.0,5.39760534693403E-079,1.09476442525376E-047));
#567=DIRECTION('',(0.0,1.0,-4.93038065763132E-032));
#568=DIRECTION('',(0.0,1.0,-4.93038065763132E-032));
#569=DIRECTION('',(-1.0,-5.39760534693403E-079,-1.09476442525376E-047));
#570=DIRECTION('',(1.09476442525376E-047,5.39760534693403E-079,-1.0));
#571=DIRECTION('',(-1.0,-5.39760534693403E-079,-1.09476442525376E-047));
#572=DIRECTION('',(-4.93038065763132E-032,1.0,0.0));
#573=DIRECTION('',(0.0,-1.0,0.0));
#574=CARTESIAN_POINT('',(-1.3988810110277E-014,-14.5,-32.5));
#575=DIRECTION('',(-4.08170229641602E-016,0.0,1.0));
#576=DIRECTION('',(-1.0,0.0,-4.08170229641602E-016));
#577=DIRECTION('',(0.0,-1.0,4.93038065763132E-032));
#578=DIRECTION('',(-2.22044604925031E-016,0.0,1.0));
#579=DIRECTION('',(4.93038065763132E-032,-1.0,0.0));
#580=CARTESIAN_POINT('',(-2.8421709430404E-014,-14.5,32.5));
#581=DIRECTION('',(4.08170229641602E-016,0.0,-1.0));
#582=DIRECTION('',(-1.0,0.0,-4.08170229641602E-016));
#583=DIRECTION('',(2.22044604925031E-016,0.0,-1.0));
#584=PRESENTATION_LAYER_ASSIGNMENT('-1','NONE',(#39,#41,#43,#45,#47,#49,#51,#53,#55,#57,#59,#61,#63,#65,#67));
ENDSEC;
END-ISO-10303-21;
