ISO-10303-21;
HEADER;
FILE_DESCRIPTION(('STEP AP214'),'1');
FILE_NAME('cctmp_E23EE522-A8C2-4815-A2A0-D2E5A95A8B67_2020_1_16_7_14_5_292..stp','2020-01-16T06:14:05',('Bosch Rexroth AG'),('CADClick - www.CADClick.com'),'Spatial InterOp 3D',' ','unknown authorization - (Healing Option Enabled)');
FILE_SCHEMA(('AUTOMOTIVE_DESIGN'));
ENDSEC;
DATA;
#1=MECHANICAL_DESIGN_GEOMETRIC_PRESENTATION_REPRESENTATION(' ',(#10,#11,#12,#13,#14,#15,#16,#17,#18),#6);
#2=PRODUCT_DEFINITION_CONTEXT('',#19,'design');
#3=APPLICATION_PROTOCOL_DEFINITION('INTERNATIONAL STANDARD','automotive_design',1994,#19);
#4=PRODUCT_CATEGORY_RELATIONSHIP('NONE','NONE',#20,#21);
#5=SHAPE_DEFINITION_REPRESENTATION(#22,#23);
#6= (GEOMETRIC_REPRESENTATION_CONTEXT(3)GLOBAL_UNCERTAINTY_ASSIGNED_CONTEXT((#26))GLOBAL_UNIT_ASSIGNED_CONTEXT((#28,#29,#30))REPRESENTATION_CONTEXT('NONE','WORKSPACE'));
#10=STYLED_ITEM('',(#32),#33);
#11=STYLED_ITEM('',(#34),#35);
#12=STYLED_ITEM('',(#36),#37);
#13=STYLED_ITEM('',(#38),#39);
#14=STYLED_ITEM('',(#40),#41);
#15=STYLED_ITEM('',(#42),#43);
#16=STYLED_ITEM('',(#44),#45);
#17=STYLED_ITEM('',(#46),#47);
#18=STYLED_ITEM('',(#48),#49);
#19=APPLICATION_CONTEXT(' ');
#20=PRODUCT_CATEGORY('part','NONE');
#21=PRODUCT_RELATED_PRODUCT_CATEGORY('detail',' ',(#50));
#22=PRODUCT_DEFINITION_SHAPE('NONE','NONE',#51);
#23=ADVANCED_BREP_SHAPE_REPRESENTATION('2020_01_16__07-14-05-292',(#49,#52),#6);
#26=UNCERTAINTY_MEASURE_WITH_UNIT(LENGTH_MEASURE(1.0E-006),#28,'','');
#28= (CONVERSION_BASED_UNIT('MILLIMETRE',#55)LENGTH_UNIT()NAMED_UNIT(#58));
#29= (NAMED_UNIT(#60)PLANE_ANGLE_UNIT()SI_UNIT($,.RADIAN.));
#30= (NAMED_UNIT(#60)SOLID_ANGLE_UNIT()SI_UNIT($,.STERADIAN.));
#32=PRESENTATION_STYLE_ASSIGNMENT((#66));
#33=ADVANCED_FACE('',(#67),#68,.F.);
#34=PRESENTATION_STYLE_ASSIGNMENT((#69));
#35=ADVANCED_FACE('',(#70),#71,.F.);
#36=PRESENTATION_STYLE_ASSIGNMENT((#72));
#37=ADVANCED_FACE('',(#73,#74),#75,.T.);
#38=PRESENTATION_STYLE_ASSIGNMENT((#76));
#39=ADVANCED_FACE('',(#77,#78),#79,.F.);
#40=PRESENTATION_STYLE_ASSIGNMENT((#80));
#41=ADVANCED_FACE('',(#81),#82,.F.);
#42=PRESENTATION_STYLE_ASSIGNMENT((#83));
#43=ADVANCED_FACE('',(#84),#85,.F.);
#44=PRESENTATION_STYLE_ASSIGNMENT((#86));
#45=ADVANCED_FACE('',(#87),#88,.F.);
#46=PRESENTATION_STYLE_ASSIGNMENT((#89));
#47=ADVANCED_FACE('',(#90),#91,.F.);
#48=PRESENTATION_STYLE_ASSIGNMENT((#92));
#49=MANIFOLD_SOLID_BREP('2020_01_16__07-14-05-292',#93);
#50=PRODUCT('2020_01_16__07-14-05-292','','PART--DESC',(#94));
#51=PRODUCT_DEFINITION('','NONE',#95,#2);
#52=AXIS2_PLACEMENT_3D('',#96,#97,#98);
#55=LENGTH_MEASURE_WITH_UNIT(LENGTH_MEASURE(1.0),#99);
#58=DIMENSIONAL_EXPONENTS(1.0,0.0,0.0,0.0,0.0,0.0,0.0);
#60=DIMENSIONAL_EXPONENTS(0.0,0.0,0.0,0.0,0.0,0.0,0.0);
#66=SURFACE_STYLE_USAGE(.BOTH.,#100);
#67=FACE_OUTER_BOUND('',#101,.T.);
#68=CYLINDRICAL_SURFACE('',#102,14.0);
#69=SURFACE_STYLE_USAGE(.BOTH.,#103);
#70=FACE_OUTER_BOUND('',#104,.T.);
#71=CYLINDRICAL_SURFACE('',#105,14.0);
#72=SURFACE_STYLE_USAGE(.BOTH.,#106);
#73=FACE_BOUND('',#107,.T.);
#74=FACE_OUTER_BOUND('',#108,.T.);
#75=PLANE('',#109);
#76=SURFACE_STYLE_USAGE(.BOTH.,#110);
#77=FACE_BOUND('',#111,.T.);
#78=FACE_OUTER_BOUND('',#112,.T.);
#79=PLANE('',#113);
#80=SURFACE_STYLE_USAGE(.BOTH.,#114);
#81=FACE_OUTER_BOUND('',#115,.T.);
#82=PLANE('',#116);
#83=SURFACE_STYLE_USAGE(.BOTH.,#117);
#84=FACE_OUTER_BOUND('',#118,.T.);
#85=PLANE('',#119);
#86=SURFACE_STYLE_USAGE(.BOTH.,#120);
#87=FACE_OUTER_BOUND('',#121,.T.);
#88=PLANE('',#122);
#89=SURFACE_STYLE_USAGE(.BOTH.,#123);
#90=FACE_OUTER_BOUND('',#124,.T.);
#91=PLANE('',#125);
#92=SURFACE_STYLE_USAGE(.BOTH.,#126);
#93=CLOSED_SHELL('',(#33,#35,#37,#39,#41,#43,#45,#47));
#94=PRODUCT_CONTEXT('',#19,'mechanical');
#95=PRODUCT_DEFINITION_FORMATION_WITH_SPECIFIED_SOURCE(' ','NONE',#50,.NOT_KNOWN.);
#96=CARTESIAN_POINT('',(0.0,0.0,0.0));
#97=DIRECTION('',(0.0,0.0,1.0));
#98=DIRECTION('',(1.0,0.0,0.0));
#99= (NAMED_UNIT(#58)LENGTH_UNIT()SI_UNIT(.MILLI.,.METRE.));
#100=SURFACE_SIDE_STYLE('',(#128));
#101=EDGE_LOOP('',(#129,#130,#131,#132));
#102=AXIS2_PLACEMENT_3D('',#133,#134,#135);
#103=SURFACE_SIDE_STYLE('',(#136));
#104=EDGE_LOOP('',(#137,#138,#139,#140));
#105=AXIS2_PLACEMENT_3D('',#141,#142,#143);
#106=SURFACE_SIDE_STYLE('',(#144));
#107=EDGE_LOOP('',(#145,#146));
#108=EDGE_LOOP('',(#147,#148,#149,#150));
#109=AXIS2_PLACEMENT_3D('',#151,#152,#153);
#110=SURFACE_SIDE_STYLE('',(#154));
#111=EDGE_LOOP('',(#155,#156));
#112=EDGE_LOOP('',(#157,#158,#159,#160));
#113=AXIS2_PLACEMENT_3D('',#161,#162,#163);
#114=SURFACE_SIDE_STYLE('',(#164));
#115=EDGE_LOOP('',(#165,#166,#167,#168));
#116=AXIS2_PLACEMENT_3D('',#169,#170,#171);
#117=SURFACE_SIDE_STYLE('',(#172));
#118=EDGE_LOOP('',(#173,#174,#175,#176));
#119=AXIS2_PLACEMENT_3D('',#177,#178,#179);
#120=SURFACE_SIDE_STYLE('',(#180));
#121=EDGE_LOOP('',(#181,#182,#183,#184));
#122=AXIS2_PLACEMENT_3D('',#185,#186,#187);
#123=SURFACE_SIDE_STYLE('',(#188));
#124=EDGE_LOOP('',(#189,#190,#191,#192));
#125=AXIS2_PLACEMENT_3D('',#193,#194,#195);
#126=SURFACE_SIDE_STYLE('',(#196));
#128=SURFACE_STYLE_FILL_AREA(#197);
#129=ORIENTED_EDGE('',*,*,#198,.F.);
#130=ORIENTED_EDGE('',*,*,#199,.F.);
#131=ORIENTED_EDGE('',*,*,#200,.F.);
#132=ORIENTED_EDGE('',*,*,#201,.F.);
#133=CARTESIAN_POINT('',(-14.0,0.0,4.0));
#134=DIRECTION('',(0.0,0.0,1.0));
#135=DIRECTION('',(1.0,0.0,0.0));
#136=SURFACE_STYLE_FILL_AREA(#202);
#137=ORIENTED_EDGE('',*,*,#198,.T.);
#138=ORIENTED_EDGE('',*,*,#203,.F.);
#139=ORIENTED_EDGE('',*,*,#200,.T.);
#140=ORIENTED_EDGE('',*,*,#204,.F.);
#141=CARTESIAN_POINT('',(-14.0,0.0,4.0));
#142=DIRECTION('',(0.0,0.0,1.0));
#143=DIRECTION('',(1.0,0.0,0.0));
#144=SURFACE_STYLE_FILL_AREA(#205);
#145=ORIENTED_EDGE('',*,*,#199,.T.);
#146=ORIENTED_EDGE('',*,*,#204,.T.);
#147=ORIENTED_EDGE('',*,*,#206,.T.);
#148=ORIENTED_EDGE('',*,*,#207,.T.);
#149=ORIENTED_EDGE('',*,*,#208,.T.);
#150=ORIENTED_EDGE('',*,*,#209,.T.);
#151=CARTESIAN_POINT('',(-7.75,0.0,15.0));
#152=DIRECTION('',(0.0,0.0,1.0));
#153=DIRECTION('',(1.0,0.0,0.0));
#154=SURFACE_STYLE_FILL_AREA(#210);
#155=ORIENTED_EDGE('',*,*,#203,.T.);
#156=ORIENTED_EDGE('',*,*,#201,.T.);
#157=ORIENTED_EDGE('',*,*,#211,.T.);
#158=ORIENTED_EDGE('',*,*,#212,.T.);
#159=ORIENTED_EDGE('',*,*,#213,.T.);
#160=ORIENTED_EDGE('',*,*,#214,.T.);
#161=CARTESIAN_POINT('',(-7.75,0.0,-15.0));
#162=DIRECTION('',(0.0,0.0,1.0));
#163=DIRECTION('',(1.0,0.0,0.0));
#164=SURFACE_STYLE_FILL_AREA(#215);
#165=ORIENTED_EDGE('',*,*,#216,.T.);
#166=ORIENTED_EDGE('',*,*,#212,.F.);
#167=ORIENTED_EDGE('',*,*,#217,.F.);
#168=ORIENTED_EDGE('',*,*,#209,.F.);
#169=CARTESIAN_POINT('',(-7.75,-22.5,0.0));
#170=DIRECTION('',(0.0,1.0,0.0));
#171=DIRECTION('',(0.0,0.0,1.0));
#172=SURFACE_STYLE_FILL_AREA(#218);
#173=ORIENTED_EDGE('',*,*,#219,.T.);
#174=ORIENTED_EDGE('',*,*,#213,.F.);
#175=ORIENTED_EDGE('',*,*,#216,.F.);
#176=ORIENTED_EDGE('',*,*,#208,.F.);
#177=CARTESIAN_POINT('',(-34.0,0.0,0.0));
#178=DIRECTION('',(1.0,0.0,0.0));
#179=DIRECTION('',(0.0,0.0,-1.0));
#180=SURFACE_STYLE_FILL_AREA(#220);
#181=ORIENTED_EDGE('',*,*,#221,.T.);
#182=ORIENTED_EDGE('',*,*,#214,.F.);
#183=ORIENTED_EDGE('',*,*,#219,.F.);
#184=ORIENTED_EDGE('',*,*,#207,.F.);
#185=CARTESIAN_POINT('',(-7.75,22.5,0.0));
#186=DIRECTION('',(0.0,-1.0,0.0));
#187=DIRECTION('',(0.0,0.0,-1.0));
#188=SURFACE_STYLE_FILL_AREA(#222);
#189=ORIENTED_EDGE('',*,*,#217,.T.);
#190=ORIENTED_EDGE('',*,*,#211,.F.);
#191=ORIENTED_EDGE('',*,*,#221,.F.);
#192=ORIENTED_EDGE('',*,*,#206,.F.);
#193=CARTESIAN_POINT('',(18.5,0.0,0.0));
#194=DIRECTION('',(-1.0,0.0,0.0));
#195=DIRECTION('',(0.0,0.0,1.0));
#196=SURFACE_STYLE_FILL_AREA(#223);
#197=FILL_AREA_STYLE('',(#224));
#198=EDGE_CURVE('',#225,#226,#227,.T.);
#199=EDGE_CURVE('',#228,#225,#229,.T.);
#200=EDGE_CURVE('',#230,#228,#231,.T.);
#201=EDGE_CURVE('',#226,#230,#232,.T.);
#202=FILL_AREA_STYLE('',(#233));
#203=EDGE_CURVE('',#230,#226,#234,.T.);
#204=EDGE_CURVE('',#225,#228,#235,.T.);
#205=FILL_AREA_STYLE('',(#236));
#206=EDGE_CURVE('',#237,#238,#239,.T.);
#207=EDGE_CURVE('',#238,#240,#241,.T.);
#208=EDGE_CURVE('',#240,#242,#243,.T.);
#209=EDGE_CURVE('',#242,#237,#244,.T.);
#210=FILL_AREA_STYLE('',(#245));
#211=EDGE_CURVE('',#246,#247,#248,.T.);
#212=EDGE_CURVE('',#247,#249,#250,.T.);
#213=EDGE_CURVE('',#249,#251,#252,.T.);
#214=EDGE_CURVE('',#251,#246,#253,.T.);
#215=FILL_AREA_STYLE('',(#254));
#216=EDGE_CURVE('',#242,#249,#255,.T.);
#217=EDGE_CURVE('',#237,#247,#256,.T.);
#218=FILL_AREA_STYLE('',(#257));
#219=EDGE_CURVE('',#240,#251,#258,.T.);
#220=FILL_AREA_STYLE('',(#259));
#221=EDGE_CURVE('',#238,#246,#260,.T.);
#222=FILL_AREA_STYLE('',(#261));
#223=FILL_AREA_STYLE('',(#262));
#224=FILL_AREA_STYLE_COLOUR('',#263);
#225=VERTEX_POINT('',#264);
#226=VERTEX_POINT('',#265);
#227=LINE('',#266,#267);
#228=VERTEX_POINT('',#268);
#229=CIRCLE('',#269,14.0);
#230=VERTEX_POINT('',#270);
#231=LINE('',#271,#272);
#232=CIRCLE('',#273,14.0);
#233=FILL_AREA_STYLE_COLOUR('',#274);
#234=CIRCLE('',#275,14.0);
#235=CIRCLE('',#276,14.0);
#236=FILL_AREA_STYLE_COLOUR('',#277);
#237=VERTEX_POINT('',#278);
#238=VERTEX_POINT('',#279);
#239=LINE('',#280,#281);
#240=VERTEX_POINT('',#282);
#241=LINE('',#283,#284);
#242=VERTEX_POINT('',#285);
#243=LINE('',#286,#287);
#244=LINE('',#288,#289);
#245=FILL_AREA_STYLE_COLOUR('',#290);
#246=VERTEX_POINT('',#291);
#247=VERTEX_POINT('',#292);
#248=LINE('',#293,#294);
#249=VERTEX_POINT('',#295);
#250=LINE('',#296,#297);
#251=VERTEX_POINT('',#298);
#252=LINE('',#299,#300);
#253=LINE('',#301,#302);
#254=FILL_AREA_STYLE_COLOUR('',#303);
#255=LINE('',#304,#305);
#256=LINE('',#306,#307);
#257=FILL_AREA_STYLE_COLOUR('',#308);
#258=LINE('',#309,#310);
#259=FILL_AREA_STYLE_COLOUR('',#311);
#260=LINE('',#312,#313);
#261=FILL_AREA_STYLE_COLOUR('',#314);
#262=FILL_AREA_STYLE_COLOUR('',#315);
#263=COLOUR_RGB('',0.509803950786591,0.509803950786591,0.588235318660736);
#264=CARTESIAN_POINT('',(0.0,-1.71450551880629E-015,15.0));
#265=CARTESIAN_POINT('',(0.0,-1.71450551880629E-015,-15.0));
#266=CARTESIAN_POINT('',(0.0,-1.71450551880629E-015,4.0));
#267=VECTOR('',#316,1.0);
#268=CARTESIAN_POINT('',(-28.0,1.71450551880629E-015,15.0));
#269=AXIS2_PLACEMENT_3D('',#317,#318,#319);
#270=CARTESIAN_POINT('',(-28.0,-1.71450551880629E-015,-15.0));
#271=CARTESIAN_POINT('',(-28.0,1.71450551880629E-015,4.0));
#272=VECTOR('',#320,1.0);
#273=AXIS2_PLACEMENT_3D('',#321,#322,#323);
#274=COLOUR_RGB('',0.509803950786591,0.509803950786591,0.588235318660736);
#275=AXIS2_PLACEMENT_3D('',#324,#325,#326);
#276=AXIS2_PLACEMENT_3D('',#327,#328,#329);
#277=COLOUR_RGB('',0.509803950786591,0.509803950786591,0.588235318660736);
#278=CARTESIAN_POINT('',(18.5,-22.5,15.0));
#279=CARTESIAN_POINT('',(18.5,22.5,15.0));
#280=CARTESIAN_POINT('',(18.5,0.0,15.0));
#281=VECTOR('',#330,1.0);
#282=CARTESIAN_POINT('',(-34.0,22.5,15.0));
#283=CARTESIAN_POINT('',(-7.75,22.5,15.0));
#284=VECTOR('',#331,1.0);
#285=CARTESIAN_POINT('',(-34.0,-22.5,15.0));
#286=CARTESIAN_POINT('',(-34.0,0.0,15.0));
#287=VECTOR('',#332,1.0);
#288=CARTESIAN_POINT('',(-7.75,-22.5,15.0));
#289=VECTOR('',#333,1.0);
#290=COLOUR_RGB('',0.509803950786591,0.509803950786591,0.588235318660736);
#291=CARTESIAN_POINT('',(18.5,22.5,-15.0));
#292=CARTESIAN_POINT('',(18.5,-22.5,-15.0));
#293=CARTESIAN_POINT('',(18.5,0.0,-15.0));
#294=VECTOR('',#334,1.0);
#295=CARTESIAN_POINT('',(-34.0,-22.5,-15.0));
#296=CARTESIAN_POINT('',(-7.75,-22.5,-15.0));
#297=VECTOR('',#335,1.0);
#298=CARTESIAN_POINT('',(-34.0,22.5,-15.0));
#299=CARTESIAN_POINT('',(-34.0,0.0,-15.0));
#300=VECTOR('',#336,1.0);
#301=CARTESIAN_POINT('',(-7.75,22.5,-15.0));
#302=VECTOR('',#337,1.0);
#303=COLOUR_RGB('',0.509803950786591,0.509803950786591,0.588235318660736);
#304=CARTESIAN_POINT('',(-34.0,-22.5,0.0));
#305=VECTOR('',#338,1.0);
#306=CARTESIAN_POINT('',(18.5,-22.5,0.0));
#307=VECTOR('',#339,1.0);
#308=COLOUR_RGB('',0.509803950786591,0.509803950786591,0.588235318660736);
#309=CARTESIAN_POINT('',(-34.0,22.5,0.0));
#310=VECTOR('',#340,1.0);
#311=COLOUR_RGB('',0.509803950786591,0.509803950786591,0.588235318660736);
#312=CARTESIAN_POINT('',(18.5,22.5,0.0));
#313=VECTOR('',#341,1.0);
#314=COLOUR_RGB('',0.509803950786591,0.509803950786591,0.588235318660736);
#315=COLOUR_RGB('',0.509803950786591,0.509803950786591,0.588235318660736);
#316=DIRECTION('',(-0.0,0.0,-1.0));
#317=CARTESIAN_POINT('',(-14.0,0.0,15.0));
#318=DIRECTION('',(0.0,0.0,-1.0));
#319=DIRECTION('',(1.0,0.0,0.0));
#320=DIRECTION('',(-0.0,0.0,1.0));
#321=CARTESIAN_POINT('',(-14.0,0.0,-15.0));
#322=DIRECTION('',(0.0,0.0,1.0));
#323=DIRECTION('',(1.0,0.0,0.0));
#324=CARTESIAN_POINT('',(-14.0,0.0,-15.0));
#325=DIRECTION('',(0.0,0.0,1.0));
#326=DIRECTION('',(1.0,0.0,0.0));
#327=CARTESIAN_POINT('',(-14.0,0.0,15.0));
#328=DIRECTION('',(0.0,0.0,-1.0));
#329=DIRECTION('',(1.0,0.0,0.0));
#330=DIRECTION('',(0.0,1.0,0.0));
#331=DIRECTION('',(-1.0,0.0,0.0));
#332=DIRECTION('',(0.0,-1.0,0.0));
#333=DIRECTION('',(1.0,0.0,0.0));
#334=DIRECTION('',(0.0,-1.0,0.0));
#335=DIRECTION('',(-1.0,0.0,0.0));
#336=DIRECTION('',(0.0,1.0,0.0));
#337=DIRECTION('',(1.0,0.0,0.0));
#338=DIRECTION('',(0.0,0.0,-1.0));
#339=DIRECTION('',(0.0,0.0,-1.0));
#340=DIRECTION('',(0.0,0.0,-1.0));
#341=DIRECTION('',(0.0,0.0,-1.0));
ENDSEC;
END-ISO-10303-21;
