ISO-10303-21;
HEADER;
FILE_DESCRIPTION(('STEP AP214'),'1');
FILE_NAME('cctmp_4495B6F8-44C7-4CF7-96C0-509BED8C703D_2020_1_16_7_11_14_710..stp','2020-01-16T06:11:14',('Bosch Rexroth AG'),('CADClick - www.CADClick.com'),'Spatial InterOp 3D',' ','unknown authorization - (Healing Option Enabled)');
FILE_SCHEMA(('AUTOMOTIVE_DESIGN'));
ENDSEC;
DATA;
#1=MECHANICAL_DESIGN_GEOMETRIC_PRESENTATION_REPRESENTATION(' ',(#10,#11,#12,#13,#14,#15,#16,#17,#18,#19),#6);
#2=PRODUCT_DEFINITION_CONTEXT('',#20,'design');
#3=APPLICATION_PROTOCOL_DEFINITION('INTERNATIONAL STANDARD','automotive_design',1994,#20);
#4=PRODUCT_CATEGORY_RELATIONSHIP('NONE','NONE',#21,#22);
#5=SHAPE_DEFINITION_REPRESENTATION(#23,#24);
#6= (GEOMETRIC_REPRESENTATION_CONTEXT(3)GLOBAL_UNCERTAINTY_ASSIGNED_CONTEXT((#27))GLOBAL_UNIT_ASSIGNED_CONTEXT((#29,#30,#31))REPRESENTATION_CONTEXT('NONE','WORKSPACE'));
#10=STYLED_ITEM('',(#33),#34);
#11=STYLED_ITEM('',(#35),#36);
#12=STYLED_ITEM('',(#37),#38);
#13=STYLED_ITEM('',(#39),#40);
#14=STYLED_ITEM('',(#41),#42);
#15=STYLED_ITEM('',(#43),#44);
#16=STYLED_ITEM('',(#45),#46);
#17=STYLED_ITEM('',(#47),#48);
#18=STYLED_ITEM('',(#49),#50);
#19=STYLED_ITEM('',(#51),#52);
#20=APPLICATION_CONTEXT(' ');
#21=PRODUCT_CATEGORY('part','NONE');
#22=PRODUCT_RELATED_PRODUCT_CATEGORY('detail',' ',(#53));
#23=PRODUCT_DEFINITION_SHAPE('NONE','NONE',#54);
#24=ADVANCED_BREP_SHAPE_REPRESENTATION('2020_01_16__07-11-14-710',(#52,#55),#6);
#27=UNCERTAINTY_MEASURE_WITH_UNIT(LENGTH_MEASURE(1.0E-006),#29,'','');
#29= (CONVERSION_BASED_UNIT('MILLIMETRE',#58)LENGTH_UNIT()NAMED_UNIT(#61));
#30= (NAMED_UNIT(#63)PLANE_ANGLE_UNIT()SI_UNIT($,.RADIAN.));
#31= (NAMED_UNIT(#63)SOLID_ANGLE_UNIT()SI_UNIT($,.STERADIAN.));
#33=PRESENTATION_STYLE_ASSIGNMENT((#69));
#34=ADVANCED_FACE('NONE',(#70),#71,.T.);
#35=PRESENTATION_STYLE_ASSIGNMENT((#72));
#36=ADVANCED_FACE('NONE',(#73),#74,.F.);
#37=PRESENTATION_STYLE_ASSIGNMENT((#75));
#38=ADVANCED_FACE('NONE',(#76),#77,.T.);
#39=PRESENTATION_STYLE_ASSIGNMENT((#78));
#40=ADVANCED_FACE('NONE',(#79,#80),#81,.F.);
#41=PRESENTATION_STYLE_ASSIGNMENT((#82));
#42=ADVANCED_FACE('NONE',(#83),#84,.T.);
#43=PRESENTATION_STYLE_ASSIGNMENT((#85));
#44=ADVANCED_FACE('NONE',(#86),#87,.F.);
#45=PRESENTATION_STYLE_ASSIGNMENT((#88));
#46=ADVANCED_FACE('NONE',(#89,#90),#91,.T.);
#47=PRESENTATION_STYLE_ASSIGNMENT((#92));
#48=ADVANCED_FACE('NONE',(#93,#94),#95,.T.);
#49=PRESENTATION_STYLE_ASSIGNMENT((#96));
#50=ADVANCED_FACE('NONE',(#97),#98,.T.);
#51=PRESENTATION_STYLE_ASSIGNMENT((#99));
#52=MANIFOLD_SOLID_BREP('2020_01_16__07-11-14-710',#100);
#53=PRODUCT('2020_01_16__07-11-14-710','','PART--DESC',(#101));
#54=PRODUCT_DEFINITION('','NONE',#102,#2);
#55=AXIS2_PLACEMENT_3D('',#103,#104,#105);
#58=LENGTH_MEASURE_WITH_UNIT(LENGTH_MEASURE(1.0),#106);
#61=DIMENSIONAL_EXPONENTS(1.0,0.0,0.0,0.0,0.0,0.0,0.0);
#63=DIMENSIONAL_EXPONENTS(0.0,0.0,0.0,0.0,0.0,0.0,0.0);
#69=SURFACE_STYLE_USAGE(.BOTH.,#107);
#70=FACE_OUTER_BOUND('',#108,.T.);
#71=CYLINDRICAL_SURFACE('',#109,9.65);
#72=SURFACE_STYLE_USAGE(.BOTH.,#110);
#73=FACE_OUTER_BOUND('',#111,.T.);
#74=CYLINDRICAL_SURFACE('',#112,5.1);
#75=SURFACE_STYLE_USAGE(.BOTH.,#113);
#76=FACE_OUTER_BOUND('',#114,.T.);
#77=CYLINDRICAL_SURFACE('',#115,14.0);
#78=SURFACE_STYLE_USAGE(.BOTH.,#116);
#79=FACE_OUTER_BOUND('',#117,.T.);
#80=FACE_BOUND('',#118,.T.);
#81=PLANE('',#119);
#82=SURFACE_STYLE_USAGE(.BOTH.,#120);
#83=FACE_OUTER_BOUND('',#121,.T.);
#84=CYLINDRICAL_SURFACE('',#122,14.0);
#85=SURFACE_STYLE_USAGE(.BOTH.,#123);
#86=FACE_OUTER_BOUND('',#124,.T.);
#87=CYLINDRICAL_SURFACE('',#125,5.1);
#88=SURFACE_STYLE_USAGE(.BOTH.,#126);
#89=FACE_OUTER_BOUND('',#127,.T.);
#90=FACE_BOUND('',#128,.T.);
#91=PLANE('',#129);
#92=SURFACE_STYLE_USAGE(.BOTH.,#130);
#93=FACE_OUTER_BOUND('',#131,.T.);
#94=FACE_BOUND('',#132,.T.);
#95=PLANE('',#133);
#96=SURFACE_STYLE_USAGE(.BOTH.,#134);
#97=FACE_OUTER_BOUND('',#135,.T.);
#98=CYLINDRICAL_SURFACE('',#136,9.65);
#99=SURFACE_STYLE_USAGE(.BOTH.,#137);
#100=CLOSED_SHELL('',(#34,#36,#38,#40,#42,#44,#46,#48,#50));
#101=PRODUCT_CONTEXT('',#20,'mechanical');
#102=PRODUCT_DEFINITION_FORMATION_WITH_SPECIFIED_SOURCE(' ','NONE',#53,.NOT_KNOWN.);
#103=CARTESIAN_POINT('',(0.0,0.0,0.0));
#104=DIRECTION('',(0.0,0.0,1.0));
#105=DIRECTION('',(1.0,0.0,0.0));
#106= (NAMED_UNIT(#61)LENGTH_UNIT()SI_UNIT(.MILLI.,.METRE.));
#107=SURFACE_SIDE_STYLE('',(#139));
#108=EDGE_LOOP('',(#140,#141,#142,#143));
#109=AXIS2_PLACEMENT_3D('',#144,#145,#146);
#110=SURFACE_SIDE_STYLE('',(#147));
#111=EDGE_LOOP('',(#148,#149,#150,#151));
#112=AXIS2_PLACEMENT_3D('',#152,#153,#154);
#113=SURFACE_SIDE_STYLE('',(#155));
#114=EDGE_LOOP('',(#156,#157,#158,#159));
#115=AXIS2_PLACEMENT_3D('',#160,#161,#162);
#116=SURFACE_SIDE_STYLE('',(#163));
#117=EDGE_LOOP('',(#164,#165));
#118=EDGE_LOOP('',(#166,#167));
#119=AXIS2_PLACEMENT_3D('',#168,#169,#170);
#120=SURFACE_SIDE_STYLE('',(#171));
#121=EDGE_LOOP('',(#172,#173,#174,#175));
#122=AXIS2_PLACEMENT_3D('',#176,#177,#178);
#123=SURFACE_SIDE_STYLE('',(#179));
#124=EDGE_LOOP('',(#180,#181,#182,#183));
#125=AXIS2_PLACEMENT_3D('',#184,#185,#186);
#126=SURFACE_SIDE_STYLE('',(#187));
#127=EDGE_LOOP('',(#188,#189));
#128=EDGE_LOOP('',(#190,#191));
#129=AXIS2_PLACEMENT_3D('',#192,#193,#194);
#130=SURFACE_SIDE_STYLE('',(#195));
#131=EDGE_LOOP('',(#196,#197));
#132=EDGE_LOOP('',(#198,#199));
#133=AXIS2_PLACEMENT_3D('',#200,#201,#202);
#134=SURFACE_SIDE_STYLE('',(#203));
#135=EDGE_LOOP('',(#204,#205,#206,#207));
#136=AXIS2_PLACEMENT_3D('',#208,#209,#210);
#137=SURFACE_SIDE_STYLE('',(#211));
#139=SURFACE_STYLE_FILL_AREA(#212);
#140=ORIENTED_EDGE('',*,*,#213,.T.);
#141=ORIENTED_EDGE('',*,*,#214,.T.);
#142=ORIENTED_EDGE('',*,*,#215,.T.);
#143=ORIENTED_EDGE('',*,*,#216,.F.);
#144=CARTESIAN_POINT('',(0.0,0.0,0.0));
#145=DIRECTION('',(-1.0,0.0,0.0));
#146=DIRECTION('',(0.0,0.0,-1.0));
#147=SURFACE_STYLE_FILL_AREA(#217);
#148=ORIENTED_EDGE('',*,*,#218,.F.);
#149=ORIENTED_EDGE('',*,*,#219,.T.);
#150=ORIENTED_EDGE('',*,*,#220,.F.);
#151=ORIENTED_EDGE('',*,*,#221,.F.);
#152=CARTESIAN_POINT('',(-6.0,0.0,0.0));
#153=DIRECTION('',(-1.0,0.0,0.0));
#154=DIRECTION('',(0.0,0.0,-1.0));
#155=SURFACE_STYLE_FILL_AREA(#222);
#156=ORIENTED_EDGE('',*,*,#223,.F.);
#157=ORIENTED_EDGE('',*,*,#224,.T.);
#158=ORIENTED_EDGE('',*,*,#225,.T.);
#159=ORIENTED_EDGE('',*,*,#226,.F.);
#160=CARTESIAN_POINT('',(0.0,0.0,0.0));
#161=DIRECTION('',(1.0,0.0,-0.0));
#162=DIRECTION('',(0.0,0.0,1.0));
#163=SURFACE_STYLE_FILL_AREA(#227);
#164=ORIENTED_EDGE('',*,*,#228,.F.);
#165=ORIENTED_EDGE('',*,*,#225,.F.);
#166=ORIENTED_EDGE('',*,*,#229,.T.);
#167=ORIENTED_EDGE('',*,*,#218,.T.);
#168=CARTESIAN_POINT('',(-6.0,0.0,0.0));
#169=DIRECTION('',(1.0,0.0,0.0));
#170=DIRECTION('',(0.0,0.0,-1.0));
#171=SURFACE_STYLE_FILL_AREA(#230);
#172=ORIENTED_EDGE('',*,*,#224,.F.);
#173=ORIENTED_EDGE('',*,*,#231,.F.);
#174=ORIENTED_EDGE('',*,*,#226,.T.);
#175=ORIENTED_EDGE('',*,*,#228,.T.);
#176=CARTESIAN_POINT('',(0.0,0.0,0.0));
#177=DIRECTION('',(1.0,0.0,-0.0));
#178=DIRECTION('',(0.0,0.0,1.0));
#179=SURFACE_STYLE_FILL_AREA(#232);
#180=ORIENTED_EDGE('',*,*,#219,.F.);
#181=ORIENTED_EDGE('',*,*,#229,.F.);
#182=ORIENTED_EDGE('',*,*,#221,.T.);
#183=ORIENTED_EDGE('',*,*,#233,.F.);
#184=CARTESIAN_POINT('',(-6.0,0.0,0.0));
#185=DIRECTION('',(-1.0,0.0,0.0));
#186=DIRECTION('',(0.0,0.0,-1.0));
#187=SURFACE_STYLE_FILL_AREA(#234);
#188=ORIENTED_EDGE('',*,*,#231,.T.);
#189=ORIENTED_EDGE('',*,*,#223,.T.);
#190=ORIENTED_EDGE('',*,*,#213,.F.);
#191=ORIENTED_EDGE('',*,*,#235,.F.);
#192=CARTESIAN_POINT('',(0.0,0.0,0.0));
#193=DIRECTION('',(1.0,0.0,0.0));
#194=DIRECTION('',(0.0,0.0,-1.0));
#195=SURFACE_STYLE_FILL_AREA(#236);
#196=ORIENTED_EDGE('',*,*,#237,.F.);
#197=ORIENTED_EDGE('',*,*,#215,.F.);
#198=ORIENTED_EDGE('',*,*,#220,.T.);
#199=ORIENTED_EDGE('',*,*,#233,.T.);
#200=CARTESIAN_POINT('',(39.0,0.0,0.0));
#201=DIRECTION('',(1.0,0.0,0.0));
#202=DIRECTION('',(0.0,0.0,-1.0));
#203=SURFACE_STYLE_FILL_AREA(#238);
#204=ORIENTED_EDGE('',*,*,#214,.F.);
#205=ORIENTED_EDGE('',*,*,#235,.T.);
#206=ORIENTED_EDGE('',*,*,#216,.T.);
#207=ORIENTED_EDGE('',*,*,#237,.T.);
#208=CARTESIAN_POINT('',(0.0,0.0,0.0));
#209=DIRECTION('',(-1.0,0.0,0.0));
#210=DIRECTION('',(0.0,0.0,-1.0));
#211=SURFACE_STYLE_FILL_AREA(#239);
#212=FILL_AREA_STYLE('',(#240));
#213=EDGE_CURVE('NONE',#241,#242,#243,.T.);
#214=EDGE_CURVE('NONE',#242,#244,#245,.T.);
#215=EDGE_CURVE('NONE',#244,#246,#247,.T.);
#216=EDGE_CURVE('NONE',#241,#246,#248,.T.);
#217=FILL_AREA_STYLE('',(#249));
#218=EDGE_CURVE('NONE',#250,#251,#252,.T.);
#219=EDGE_CURVE('NONE',#250,#253,#254,.T.);
#220=EDGE_CURVE('NONE',#255,#253,#256,.T.);
#221=EDGE_CURVE('NONE',#251,#255,#257,.T.);
#222=FILL_AREA_STYLE('',(#258));
#223=EDGE_CURVE('NONE',#259,#260,#261,.T.);
#224=EDGE_CURVE('NONE',#259,#262,#263,.T.);
#225=EDGE_CURVE('NONE',#262,#264,#265,.T.);
#226=EDGE_CURVE('NONE',#260,#264,#266,.T.);
#227=FILL_AREA_STYLE('',(#267));
#228=EDGE_CURVE('NONE',#264,#262,#268,.T.);
#229=EDGE_CURVE('NONE',#251,#250,#269,.T.);
#230=FILL_AREA_STYLE('',(#270));
#231=EDGE_CURVE('NONE',#260,#259,#271,.T.);
#232=FILL_AREA_STYLE('',(#272));
#233=EDGE_CURVE('NONE',#253,#255,#273,.T.);
#234=FILL_AREA_STYLE('',(#274));
#235=EDGE_CURVE('NONE',#242,#241,#275,.T.);
#236=FILL_AREA_STYLE('',(#276));
#237=EDGE_CURVE('NONE',#246,#244,#277,.T.);
#238=FILL_AREA_STYLE('',(#278));
#239=FILL_AREA_STYLE('',(#279));
#240=FILL_AREA_STYLE_COLOUR('',#280);
#241=VERTEX_POINT('NONE',#281);
#242=VERTEX_POINT('NONE',#282);
#243=CIRCLE('',#283,9.65);
#244=VERTEX_POINT('NONE',#284);
#245=LINE('',#285,#286);
#246=VERTEX_POINT('NONE',#287);
#247=CIRCLE('',#288,9.65);
#248=LINE('',#289,#290);
#249=FILL_AREA_STYLE_COLOUR('',#291);
#250=VERTEX_POINT('NONE',#292);
#251=VERTEX_POINT('NONE',#293);
#252=CIRCLE('',#294,5.1);
#253=VERTEX_POINT('NONE',#295);
#254=LINE('',#296,#297);
#255=VERTEX_POINT('NONE',#298);
#256=CIRCLE('',#299,5.1);
#257=LINE('',#300,#301);
#258=FILL_AREA_STYLE_COLOUR('',#302);
#259=VERTEX_POINT('NONE',#303);
#260=VERTEX_POINT('NONE',#304);
#261=CIRCLE('',#305,14.0);
#262=VERTEX_POINT('NONE',#306);
#263=LINE('',#307,#308);
#264=VERTEX_POINT('NONE',#309);
#265=CIRCLE('',#310,14.0);
#266=LINE('',#311,#312);
#267=FILL_AREA_STYLE_COLOUR('',#313);
#268=CIRCLE('',#314,14.0);
#269=CIRCLE('',#315,5.1);
#270=FILL_AREA_STYLE_COLOUR('',#316);
#271=CIRCLE('',#317,14.0);
#272=FILL_AREA_STYLE_COLOUR('',#318);
#273=CIRCLE('',#319,5.1);
#274=FILL_AREA_STYLE_COLOUR('',#320);
#275=CIRCLE('',#321,9.65);
#276=FILL_AREA_STYLE_COLOUR('',#322);
#277=CIRCLE('',#323,9.65);
#278=FILL_AREA_STYLE_COLOUR('',#324);
#279=FILL_AREA_STYLE_COLOUR('',#325);
#280=COLOUR_RGB('',0.509803950786591,0.509803950786591,0.588235318660736);
#281=CARTESIAN_POINT('',(0.0,0.0,-9.65));
#282=CARTESIAN_POINT('',(0.0,1.1817841611772E-015,9.65));
#283=AXIS2_PLACEMENT_3D('',#326,#327,#328);
#284=CARTESIAN_POINT('',(39.0,1.1817841611772E-015,9.65));
#285=CARTESIAN_POINT('',(0.0,1.1817841611772E-015,9.65));
#286=VECTOR('',#329,1000.0);
#287=CARTESIAN_POINT('',(39.0,0.0,-9.65));
#288=AXIS2_PLACEMENT_3D('',#330,#331,#332);
#289=CARTESIAN_POINT('',(0.0,0.0,-9.65));
#290=VECTOR('',#333,1000.0);
#291=COLOUR_RGB('',0.509803950786591,0.509803950786591,0.588235318660736);
#292=CARTESIAN_POINT('',(-6.0,6.2456986756515E-016,5.1));
#293=CARTESIAN_POINT('',(-6.0,0.0,-5.1));
#294=AXIS2_PLACEMENT_3D('',#334,#335,#336);
#295=CARTESIAN_POINT('',(39.0,6.2456986756515E-016,5.1));
#296=CARTESIAN_POINT('',(-6.0,6.2456986756515E-016,5.1));
#297=VECTOR('',#337,1000.0);
#298=CARTESIAN_POINT('',(39.0,0.0,-5.1));
#299=AXIS2_PLACEMENT_3D('',#338,#339,#340);
#300=CARTESIAN_POINT('',(-6.0,0.0,-5.1));
#301=VECTOR('',#341,1000.0);
#302=COLOUR_RGB('',0.509803950786591,0.509803950786591,0.588235318660736);
#303=CARTESIAN_POINT('',(0.0,1.71450551880629E-015,-14.0));
#304=CARTESIAN_POINT('',(0.0,0.0,14.0));
#305=AXIS2_PLACEMENT_3D('',#342,#343,#344);
#306=CARTESIAN_POINT('',(-6.0,1.71450551880629E-015,-14.0));
#307=CARTESIAN_POINT('',(0.0,1.71450551880629E-015,-14.0));
#308=VECTOR('',#345,1000.0);
#309=CARTESIAN_POINT('',(-6.0,0.0,14.0));
#310=AXIS2_PLACEMENT_3D('',#346,#347,#348);
#311=CARTESIAN_POINT('',(0.0,0.0,14.0));
#312=VECTOR('',#349,1000.0);
#313=COLOUR_RGB('',0.509803950786591,0.509803950786591,0.588235318660736);
#314=AXIS2_PLACEMENT_3D('',#350,#351,#352);
#315=AXIS2_PLACEMENT_3D('',#353,#354,#355);
#316=COLOUR_RGB('',0.509803950786591,0.509803950786591,0.588235318660736);
#317=AXIS2_PLACEMENT_3D('',#356,#357,#358);
#318=COLOUR_RGB('',0.509803950786591,0.509803950786591,0.588235318660736);
#319=AXIS2_PLACEMENT_3D('',#359,#360,#361);
#320=COLOUR_RGB('',0.509803950786591,0.509803950786591,0.588235318660736);
#321=AXIS2_PLACEMENT_3D('',#362,#363,#364);
#322=COLOUR_RGB('',0.509803950786591,0.509803950786591,0.588235318660736);
#323=AXIS2_PLACEMENT_3D('',#365,#366,#367);
#324=COLOUR_RGB('',0.509803950786591,0.509803950786591,0.588235318660736);
#325=COLOUR_RGB('',0.509803950786591,0.509803950786591,0.588235318660736);
#326=CARTESIAN_POINT('',(0.0,0.0,0.0));
#327=DIRECTION('',(1.0,0.0,0.0));
#328=DIRECTION('',(0.0,0.0,-1.0));
#329=DIRECTION('',(1.0,0.0,0.0));
#330=CARTESIAN_POINT('',(39.0,0.0,0.0));
#331=DIRECTION('',(-1.0,0.0,0.0));
#332=DIRECTION('',(0.0,0.0,-1.0));
#333=DIRECTION('',(1.0,0.0,0.0));
#334=CARTESIAN_POINT('',(-6.0,0.0,0.0));
#335=DIRECTION('',(1.0,0.0,0.0));
#336=DIRECTION('',(0.0,0.0,-1.0));
#337=DIRECTION('',(1.0,0.0,0.0));
#338=CARTESIAN_POINT('',(39.0,0.0,0.0));
#339=DIRECTION('',(-1.0,0.0,0.0));
#340=DIRECTION('',(0.0,0.0,-1.0));
#341=DIRECTION('',(1.0,0.0,0.0));
#342=CARTESIAN_POINT('',(0.0,0.0,0.0));
#343=DIRECTION('',(1.0,0.0,-0.0));
#344=DIRECTION('',(0.0,0.0,1.0));
#345=DIRECTION('',(-1.0,0.0,0.0));
#346=CARTESIAN_POINT('',(-6.0,0.0,0.0));
#347=DIRECTION('',(1.0,0.0,-0.0));
#348=DIRECTION('',(0.0,0.0,1.0));
#349=DIRECTION('',(-1.0,0.0,0.0));
#350=CARTESIAN_POINT('',(-6.0,0.0,0.0));
#351=DIRECTION('',(1.0,0.0,-0.0));
#352=DIRECTION('',(0.0,0.0,1.0));
#353=CARTESIAN_POINT('',(-6.0,0.0,0.0));
#354=DIRECTION('',(1.0,0.0,0.0));
#355=DIRECTION('',(0.0,0.0,-1.0));
#356=CARTESIAN_POINT('',(0.0,0.0,0.0));
#357=DIRECTION('',(1.0,0.0,-0.0));
#358=DIRECTION('',(0.0,0.0,1.0));
#359=CARTESIAN_POINT('',(39.0,0.0,0.0));
#360=DIRECTION('',(-1.0,0.0,0.0));
#361=DIRECTION('',(0.0,0.0,-1.0));
#362=CARTESIAN_POINT('',(0.0,0.0,0.0));
#363=DIRECTION('',(1.0,0.0,0.0));
#364=DIRECTION('',(0.0,0.0,-1.0));
#365=CARTESIAN_POINT('',(39.0,0.0,0.0));
#366=DIRECTION('',(-1.0,0.0,0.0));
#367=DIRECTION('',(0.0,0.0,-1.0));
#368=PRESENTATION_LAYER_ASSIGNMENT('-1','NONE',(#34,#36,#38,#40,#42,#44,#46,#48,#50,#52));
ENDSEC;
END-ISO-10303-21;
