ISO-10303-21;
HEADER;
FILE_DESCRIPTION(('STEP AP214'),'1');
FILE_NAME('cctmp_98FD1AA1-36A9-45E5-92E9-1FB24ADBFFEE_2020_1_16_7_0_21_148..stp','2020-01-16T06:00:21',('Bosch Rexroth AG'),('CADClick - www.CADClick.com'),'Spatial InterOp 3D',' ','unknown authorization - (Healing Option Enabled)');
FILE_SCHEMA(('AUTOMOTIVE_DESIGN'));
ENDSEC;
DATA;
#1=MECHANICAL_DESIGN_GEOMETRIC_PRESENTATION_REPRESENTATION(' ',(#10,#11,#12,#13,#14,#15,#16,#17,#18,#19,#20,#21),#6);
#2=PRODUCT_DEFINITION_CONTEXT('',#22,'design');
#3=APPLICATION_PROTOCOL_DEFINITION('INTERNATIONAL STANDARD','automotive_design',1994,#22);
#4=PRODUCT_CATEGORY_RELATIONSHIP('NONE','NONE',#23,#24);
#5=SHAPE_DEFINITION_REPRESENTATION(#25,#26);
#6= (GEOMETRIC_REPRESENTATION_CONTEXT(3)GLOBAL_UNCERTAINTY_ASSIGNED_CONTEXT((#29))GLOBAL_UNIT_ASSIGNED_CONTEXT((#31,#32,#33))REPRESENTATION_CONTEXT('NONE','WORKSPACE'));
#10=STYLED_ITEM('',(#35),#36);
#11=STYLED_ITEM('',(#37),#38);
#12=STYLED_ITEM('',(#39),#40);
#13=STYLED_ITEM('',(#41),#42);
#14=STYLED_ITEM('',(#43),#44);
#15=STYLED_ITEM('',(#45),#46);
#16=STYLED_ITEM('',(#47),#48);
#17=STYLED_ITEM('',(#49),#50);
#18=STYLED_ITEM('',(#51),#52);
#19=STYLED_ITEM('',(#53),#54);
#20=STYLED_ITEM('',(#55),#56);
#21=STYLED_ITEM('',(#57),#58);
#22=APPLICATION_CONTEXT(' ');
#23=PRODUCT_CATEGORY('part','NONE');
#24=PRODUCT_RELATED_PRODUCT_CATEGORY('detail',' ',(#59));
#25=PRODUCT_DEFINITION_SHAPE('NONE','NONE',#60);
#26=ADVANCED_BREP_SHAPE_REPRESENTATION('2020_01_16__07-00-21-148',(#58,#61),#6);
#29=UNCERTAINTY_MEASURE_WITH_UNIT(LENGTH_MEASURE(1.0E-006),#31,'','');
#31= (CONVERSION_BASED_UNIT('MILLIMETRE',#64)LENGTH_UNIT()NAMED_UNIT(#67));
#32= (NAMED_UNIT(#69)PLANE_ANGLE_UNIT()SI_UNIT($,.RADIAN.));
#33= (NAMED_UNIT(#69)SOLID_ANGLE_UNIT()SI_UNIT($,.STERADIAN.));
#35=PRESENTATION_STYLE_ASSIGNMENT((#75));
#36=ADVANCED_FACE('',(#76),#77,.T.);
#37=PRESENTATION_STYLE_ASSIGNMENT((#78));
#38=ADVANCED_FACE('',(#79),#80,.T.);
#39=PRESENTATION_STYLE_ASSIGNMENT((#81));
#40=ADVANCED_FACE('',(#82),#83,.T.);
#41=PRESENTATION_STYLE_ASSIGNMENT((#84));
#42=ADVANCED_FACE('',(#85,#86),#87,.F.);
#43=PRESENTATION_STYLE_ASSIGNMENT((#88));
#44=ADVANCED_FACE('',(#89),#90,.T.);
#45=PRESENTATION_STYLE_ASSIGNMENT((#91));
#46=ADVANCED_FACE('',(#92),#93,.F.);
#47=PRESENTATION_STYLE_ASSIGNMENT((#94));
#48=ADVANCED_FACE('',(#95),#96,.T.);
#49=PRESENTATION_STYLE_ASSIGNMENT((#97));
#50=ADVANCED_FACE('',(#98),#99,.T.);
#51=PRESENTATION_STYLE_ASSIGNMENT((#100));
#52=ADVANCED_FACE('',(#101,#102),#103,.T.);
#53=PRESENTATION_STYLE_ASSIGNMENT((#104));
#54=ADVANCED_FACE('',(#105,#106),#107,.T.);
#55=PRESENTATION_STYLE_ASSIGNMENT((#108));
#56=ADVANCED_FACE('',(#109),#110,.T.);
#57=PRESENTATION_STYLE_ASSIGNMENT((#111));
#58=MANIFOLD_SOLID_BREP('2020_01_16__07-00-21-148',#112);
#59=PRODUCT('2020_01_16__07-00-21-148','','PART--DESC',(#113));
#60=PRODUCT_DEFINITION('','NONE',#114,#2);
#61=AXIS2_PLACEMENT_3D('',#115,#116,#117);
#64=LENGTH_MEASURE_WITH_UNIT(LENGTH_MEASURE(1.0),#118);
#67=DIMENSIONAL_EXPONENTS(1.0,0.0,0.0,0.0,0.0,0.0,0.0);
#69=DIMENSIONAL_EXPONENTS(0.0,0.0,0.0,0.0,0.0,0.0,0.0);
#75=SURFACE_STYLE_USAGE(.BOTH.,#119);
#76=FACE_OUTER_BOUND('',#120,.T.);
#77=CONICAL_SURFACE('',#121,10.0639093949498,0.523598774991673);
#78=SURFACE_STYLE_USAGE(.BOTH.,#122);
#79=FACE_OUTER_BOUND('',#123,.T.);
#80=CYLINDRICAL_SURFACE('',#124,11.9999999999984);
#81=SURFACE_STYLE_USAGE(.BOTH.,#125);
#82=FACE_OUTER_BOUND('',#126,.T.);
#83=CYLINDRICAL_SURFACE('',#127,15.5000000000024);
#84=SURFACE_STYLE_USAGE(.BOTH.,#128);
#85=FACE_OUTER_BOUND('',#129,.T.);
#86=FACE_BOUND('',#130,.T.);
#87=PLANE('',#131);
#88=SURFACE_STYLE_USAGE(.BOTH.,#132);
#89=FACE_OUTER_BOUND('',#133,.T.);
#90=CYLINDRICAL_SURFACE('',#134,15.5000000000024);
#91=SURFACE_STYLE_USAGE(.BOTH.,#135);
#92=FACE_OUTER_BOUND('',#136,.T.);
#93=PLANE('',#137);
#94=SURFACE_STYLE_USAGE(.BOTH.,#138);
#95=FACE_OUTER_BOUND('',#139,.T.);
#96=CYLINDRICAL_SURFACE('',#140,11.9999999999984);
#97=SURFACE_STYLE_USAGE(.BOTH.,#141);
#98=FACE_OUTER_BOUND('',#142,.T.);
#99=CONICAL_SURFACE('',#143,10.0639093949498,0.523598774991673);
#100=SURFACE_STYLE_USAGE(.BOTH.,#144);
#101=FACE_OUTER_BOUND('',#145,.T.);
#102=FACE_BOUND('',#146,.T.);
#103=PLANE('',#147);
#104=SURFACE_STYLE_USAGE(.BOTH.,#148);
#105=FACE_OUTER_BOUND('',#149,.T.);
#106=FACE_BOUND('',#150,.T.);
#107=PLANE('',#151);
#108=SURFACE_STYLE_USAGE(.BOTH.,#152);
#109=FACE_OUTER_BOUND('',#153,.T.);
#110=SPHERICAL_SURFACE('',#154,7.50000000000051);
#111=SURFACE_STYLE_USAGE(.BOTH.,#155);
#112=CLOSED_SHELL('',(#36,#38,#40,#42,#44,#46,#48,#50,#52,#54,#56));
#113=PRODUCT_CONTEXT('',#22,'mechanical');
#114=PRODUCT_DEFINITION_FORMATION_WITH_SPECIFIED_SOURCE(' ','NONE',#59,.NOT_KNOWN.);
#115=CARTESIAN_POINT('',(0.0,0.0,0.0));
#116=DIRECTION('',(0.0,0.0,1.0));
#117=DIRECTION('',(1.0,0.0,0.0));
#118= (NAMED_UNIT(#67)LENGTH_UNIT()SI_UNIT(.MILLI.,.METRE.));
#119=SURFACE_SIDE_STYLE('',(#157));
#120=EDGE_LOOP('',(#158,#159,#160,#161));
#121=AXIS2_PLACEMENT_3D('',#162,#163,#164);
#122=SURFACE_SIDE_STYLE('',(#165));
#123=EDGE_LOOP('',(#166,#167,#168,#169,#170));
#124=AXIS2_PLACEMENT_3D('',#171,#172,#173);
#125=SURFACE_SIDE_STYLE('',(#174));
#126=EDGE_LOOP('',(#175,#176,#177,#178));
#127=AXIS2_PLACEMENT_3D('',#179,#180,#181);
#128=SURFACE_SIDE_STYLE('',(#182));
#129=EDGE_LOOP('',(#183,#184));
#130=EDGE_LOOP('',(#185,#186,#187));
#131=AXIS2_PLACEMENT_3D('',#188,#189,#190);
#132=SURFACE_SIDE_STYLE('',(#191));
#133=EDGE_LOOP('',(#192,#193,#194,#195));
#134=AXIS2_PLACEMENT_3D('',#196,#197,#198);
#135=SURFACE_SIDE_STYLE('',(#199));
#136=EDGE_LOOP('',(#200,#201));
#137=AXIS2_PLACEMENT_3D('',#202,#203,#204);
#138=SURFACE_SIDE_STYLE('',(#205));
#139=EDGE_LOOP('',(#206,#207,#208,#209));
#140=AXIS2_PLACEMENT_3D('',#210,#211,#212);
#141=SURFACE_SIDE_STYLE('',(#213));
#142=EDGE_LOOP('',(#214,#215,#216,#217));
#143=AXIS2_PLACEMENT_3D('',#218,#219,#220);
#144=SURFACE_SIDE_STYLE('',(#221));
#145=EDGE_LOOP('',(#222,#223));
#146=EDGE_LOOP('',(#224,#225));
#147=AXIS2_PLACEMENT_3D('',#226,#227,#228);
#148=SURFACE_SIDE_STYLE('',(#229));
#149=EDGE_LOOP('',(#230,#231));
#150=EDGE_LOOP('',(#232,#233));
#151=AXIS2_PLACEMENT_3D('',#234,#235,#236);
#152=SURFACE_SIDE_STYLE('',(#237));
#153=EDGE_LOOP('',(#238,#239));
#154=AXIS2_PLACEMENT_3D('',#240,#241,#242);
#155=SURFACE_SIDE_STYLE('',(#243));
#157=SURFACE_STYLE_FILL_AREA(#244);
#158=ORIENTED_EDGE('',*,*,#245,.F.);
#159=ORIENTED_EDGE('',*,*,#246,.T.);
#160=ORIENTED_EDGE('',*,*,#247,.F.);
#161=ORIENTED_EDGE('',*,*,#248,.T.);
#162=CARTESIAN_POINT('',(-1.557199E-011,3.01039893298906,7.224638E-011));
#163=DIRECTION('',(7.07131997524845E-012,-1.0,-7.92760099378749E-012));
#164=DIRECTION('',(0.969915072263097,8.788503E-012,-0.243443530612074));
#165=SURFACE_STYLE_FILL_AREA(#249);
#166=ORIENTED_EDGE('',*,*,#250,.F.);
#167=ORIENTED_EDGE('',*,*,#251,.F.);
#168=ORIENTED_EDGE('',*,*,#252,.F.);
#169=ORIENTED_EDGE('',*,*,#253,.F.);
#170=ORIENTED_EDGE('',*,*,#254,.F.);
#171=CARTESIAN_POINT('',(-3.848361E-015,-11.73,1.620926E-012));
#172=DIRECTION('',(0.0,1.0,-0.0));
#173=DIRECTION('',(0.0,0.0,1.0));
#174=SURFACE_STYLE_FILL_AREA(#255);
#175=ORIENTED_EDGE('',*,*,#256,.F.);
#176=ORIENTED_EDGE('',*,*,#257,.F.);
#177=ORIENTED_EDGE('',*,*,#258,.F.);
#178=ORIENTED_EDGE('',*,*,#259,.F.);
#179=CARTESIAN_POINT('',(6.413935E-015,0.439997599904,2.355893E-012));
#180=DIRECTION('',(0.0,1.0,0.0));
#181=DIRECTION('',(0.0,0.0,-1.0));
#182=SURFACE_STYLE_FILL_AREA(#260);
#183=ORIENTED_EDGE('',*,*,#261,.T.);
#184=ORIENTED_EDGE('',*,*,#259,.T.);
#185=ORIENTED_EDGE('',*,*,#251,.T.);
#186=ORIENTED_EDGE('',*,*,#262,.T.);
#187=ORIENTED_EDGE('',*,*,#252,.T.);
#188=CARTESIAN_POINT('',(-2.220446E-015,0.0,15.61100926343));
#189=DIRECTION('',(0.0,1.0,0.0));
#190=DIRECTION('',(1.0,0.0,-0.0));
#191=SURFACE_STYLE_FILL_AREA(#263);
#192=ORIENTED_EDGE('',*,*,#256,.T.);
#193=ORIENTED_EDGE('',*,*,#261,.F.);
#194=ORIENTED_EDGE('',*,*,#258,.T.);
#195=ORIENTED_EDGE('',*,*,#264,.F.);
#196=CARTESIAN_POINT('',(6.413935E-015,0.439997599904,2.355893E-012));
#197=DIRECTION('',(0.0,1.0,0.0));
#198=DIRECTION('',(0.0,0.0,-1.0));
#199=SURFACE_STYLE_FILL_AREA(#265);
#200=ORIENTED_EDGE('',*,*,#266,.T.);
#201=ORIENTED_EDGE('',*,*,#254,.T.);
#202=CARTESIAN_POINT('',(0.0,-12.0,11.96958727168));
#203=DIRECTION('',(0.0,1.0,0.0));
#204=DIRECTION('',(1.0,0.0,-0.0));
#205=SURFACE_STYLE_FILL_AREA(#267);
#206=ORIENTED_EDGE('',*,*,#250,.T.);
#207=ORIENTED_EDGE('',*,*,#266,.F.);
#208=ORIENTED_EDGE('',*,*,#253,.T.);
#209=ORIENTED_EDGE('',*,*,#262,.F.);
#210=CARTESIAN_POINT('',(-3.848361E-015,-11.73,1.620926E-012));
#211=DIRECTION('',(0.0,1.0,-0.0));
#212=DIRECTION('',(0.0,0.0,1.0));
#213=SURFACE_STYLE_FILL_AREA(#268);
#214=ORIENTED_EDGE('',*,*,#245,.T.);
#215=ORIENTED_EDGE('',*,*,#269,.T.);
#216=ORIENTED_EDGE('',*,*,#247,.T.);
#217=ORIENTED_EDGE('',*,*,#270,.T.);
#218=CARTESIAN_POINT('',(-1.557199E-011,3.01039893298906,7.224638E-011));
#219=DIRECTION('',(7.07131997524845E-012,-1.0,-7.92760099378749E-012));
#220=DIRECTION('',(0.969915072263097,8.788503E-012,-0.243443530612074));
#221=SURFACE_STYLE_FILL_AREA(#271);
#222=ORIENTED_EDGE('',*,*,#270,.F.);
#223=ORIENTED_EDGE('',*,*,#246,.F.);
#224=ORIENTED_EDGE('',*,*,#272,.F.);
#225=ORIENTED_EDGE('',*,*,#273,.F.);
#226=CARTESIAN_POINT('',(0.0,6.1,8.311110883049));
#227=DIRECTION('',(0.0,1.0,0.0));
#228=DIRECTION('',(1.0,0.0,-0.0));
#229=SURFACE_STYLE_FILL_AREA(#274);
#230=ORIENTED_EDGE('',*,*,#257,.T.);
#231=ORIENTED_EDGE('',*,*,#264,.T.);
#232=ORIENTED_EDGE('',*,*,#248,.F.);
#233=ORIENTED_EDGE('',*,*,#269,.F.);
#234=CARTESIAN_POINT('',(0.0,2.5,15.61125383893));
#235=DIRECTION('',(0.0,1.0,0.0));
#236=DIRECTION('',(1.0,0.0,-0.0));
#237=SURFACE_STYLE_FILL_AREA(#275);
#238=ORIENTED_EDGE('',*,*,#272,.T.);
#239=ORIENTED_EDGE('',*,*,#273,.T.);
#240=CARTESIAN_POINT('',(-1.092182E-013,1.99999999999965,-9.681145E-013));
#241=DIRECTION('',(0.0,0.0,1.0));
#242=DIRECTION('',(1.0,0.0,0.0));
#243=SURFACE_STYLE_FILL_AREA(#276);
#244=FILL_AREA_STYLE('',(#277));
#245=EDGE_CURVE('',#278,#279,#280,.T.);
#246=EDGE_CURVE('',#278,#281,#282,.T.);
#247=EDGE_CURVE('',#283,#281,#284,.T.);
#248=EDGE_CURVE('',#283,#279,#285,.T.);
#249=FILL_AREA_STYLE('',(#286));
#250=EDGE_CURVE('',#287,#288,#289,.T.);
#251=EDGE_CURVE('',#290,#287,#291,.T.);
#252=EDGE_CURVE('',#292,#290,#293,.T.);
#253=EDGE_CURVE('',#294,#292,#295,.T.);
#254=EDGE_CURVE('',#288,#294,#296,.T.);
#255=FILL_AREA_STYLE('',(#297));
#256=EDGE_CURVE('',#298,#299,#300,.T.);
#257=EDGE_CURVE('',#301,#298,#302,.T.);
#258=EDGE_CURVE('',#303,#301,#304,.T.);
#259=EDGE_CURVE('',#299,#303,#305,.T.);
#260=FILL_AREA_STYLE('',(#306));
#261=EDGE_CURVE('',#303,#299,#307,.T.);
#262=EDGE_CURVE('',#287,#292,#308,.T.);
#263=FILL_AREA_STYLE('',(#309));
#264=EDGE_CURVE('',#298,#301,#310,.T.);
#265=FILL_AREA_STYLE('',(#311));
#266=EDGE_CURVE('',#294,#288,#312,.T.);
#267=FILL_AREA_STYLE('',(#313));
#268=FILL_AREA_STYLE('',(#314));
#269=EDGE_CURVE('',#279,#283,#315,.T.);
#270=EDGE_CURVE('',#281,#278,#316,.T.);
#271=FILL_AREA_STYLE('',(#317));
#272=EDGE_CURVE('',#318,#319,#320,.T.);
#273=EDGE_CURVE('',#319,#318,#321,.T.);
#274=FILL_AREA_STYLE('',(#322));
#275=FILL_AREA_STYLE('',(#323));
#276=FILL_AREA_STYLE('',(#324));
#277=FILL_AREA_STYLE_COLOUR('',#325);
#278=VERTEX_POINT('',#326);
#279=VERTEX_POINT('',#327);
#280=LINE('',#328,#329);
#281=VERTEX_POINT('',#330);
#282=CIRCLE('',#331,8.28012738721873);
#283=VERTEX_POINT('',#332);
#284=LINE('',#333,#334);
#285=CIRCLE('',#335,10.358588356228);
#286=FILL_AREA_STYLE_COLOUR('',#336);
#287=VERTEX_POINT('',#337);
#288=VERTEX_POINT('',#338);
#289=LINE('',#339,#340);
#290=VERTEX_POINT('',#341);
#291=CIRCLE('',#342,12.0);
#292=VERTEX_POINT('',#343);
#293=CIRCLE('',#344,12.0);
#294=VERTEX_POINT('',#345);
#295=LINE('',#346,#347);
#296=CIRCLE('',#348,11.9999999999984);
#297=FILL_AREA_STYLE_COLOUR('',#349);
#298=VERTEX_POINT('',#350);
#299=VERTEX_POINT('',#351);
#300=LINE('',#352,#353);
#301=VERTEX_POINT('',#354);
#302=CIRCLE('',#355,15.5000000000024);
#303=VERTEX_POINT('',#356);
#304=LINE('',#357,#358);
#305=CIRCLE('',#359,15.5000000000024);
#306=FILL_AREA_STYLE_COLOUR('',#360);
#307=CIRCLE('',#361,15.5000000000024);
#308=CIRCLE('',#362,12.0);
#309=FILL_AREA_STYLE_COLOUR('',#363);
#310=CIRCLE('',#364,15.5000000000024);
#311=FILL_AREA_STYLE_COLOUR('',#365);
#312=CIRCLE('',#366,11.9999999999984);
#313=FILL_AREA_STYLE_COLOUR('',#367);
#314=FILL_AREA_STYLE_COLOUR('',#368);
#315=CIRCLE('',#369,10.358588356228);
#316=CIRCLE('',#370,8.28012738721873);
#317=FILL_AREA_STYLE_COLOUR('',#371);
#318=VERTEX_POINT('',#372);
#319=VERTEX_POINT('',#373);
#320=CIRCLE('',#374,6.280127387243);
#321=CIRCLE('',#375,6.280127387243);
#322=FILL_AREA_STYLE_COLOUR('',#376);
#323=FILL_AREA_STYLE_COLOUR('',#377);
#324=FILL_AREA_STYLE_COLOUR('',#378);
#325=COLOUR_RGB('',0.752941191196442,0.752941191196442,0.752941191196442);
#326=CARTESIAN_POINT('',(8.03102035308448,6.10000000013866,-2.01574344496551));
#327=CARTESIAN_POINT('',(10.0469509740626,2.5000000002148,-2.52173132152906));
#328=CARTESIAN_POINT('',(9.76113740803642,3.0103989330775,-2.44999363479435));
#329=VECTOR('',#379,1.0);
#330=CARTESIAN_POINT('',(-8.03102035315932,6.09999999999312,2.015743445159));
#331=AXIS2_PLACEMENT_3D('',#380,#381,#382);
#332=CARTESIAN_POINT('',(-10.0469509740865,2.50000000003272,2.52173132166547));
#333=CARTESIAN_POINT('',(-9.76113740806756,3.01039893290061,2.44999363493884));
#334=VECTOR('',#383,1.0);
#335=AXIS2_PLACEMENT_3D('',#384,#385,#386);
#336=COLOUR_RGB('',0.752941191196442,0.752941191196442,0.752941191196442);
#337=CARTESIAN_POINT('',(-5.31793715897663E-015,0.0,12.0));
#338=CARTESIAN_POINT('',(-5.31793715897663E-015,-12.0,12.0));
#339=CARTESIAN_POINT('',(-5.31793715897663E-015,-11.73,12.0));
#340=VECTOR('',#387,1.0);
#341=CARTESIAN_POINT('',(-12.0,0.0,0.0));
#342=AXIS2_PLACEMENT_3D('',#388,#389,#390);
#343=CARTESIAN_POINT('',(-2.37878484102298E-015,0.0,-12.0));
#344=AXIS2_PLACEMENT_3D('',#391,#392,#393);
#345=CARTESIAN_POINT('',(-6.227194E-015,-12.0,-11.9999999999968));
#346=CARTESIAN_POINT('',(-2.37878484102337E-015,-11.73,-11.9999999999968));
#347=VECTOR('',#394,1.0);
#348=AXIS2_PLACEMENT_3D('',#395,#396,#397);
#349=COLOUR_RGB('',0.752941191196442,0.752941191196442,0.752941191196442);
#350=CARTESIAN_POINT('',(8.31213753867868E-015,2.5,-15.5));
#351=CARTESIAN_POINT('',(8.31213753867868E-015,0.0,-15.5));
#352=CARTESIAN_POINT('',(8.31213753867868E-015,0.439997599904,-15.5));
#353=VECTOR('',#398,1.0);
#354=CARTESIAN_POINT('',(1.472601E-014,2.5,15.5000000000047));
#355=AXIS2_PLACEMENT_3D('',#399,#400,#401);
#356=CARTESIAN_POINT('',(1.092973E-014,0.0,15.5000000000047));
#357=CARTESIAN_POINT('',(4.51573246132131E-015,0.439997599904,15.5000000000047));
#358=VECTOR('',#402,1.0);
#359=AXIS2_PLACEMENT_3D('',#403,#404,#405);
#360=COLOUR_RGB('',0.752941191196442,0.752941191196442,0.752941191196442);
#361=AXIS2_PLACEMENT_3D('',#406,#407,#408);
#362=AXIS2_PLACEMENT_3D('',#409,#410,#411);
#363=COLOUR_RGB('',0.752941191196442,0.752941191196442,0.752941191196442);
#364=AXIS2_PLACEMENT_3D('',#412,#413,#414);
#365=COLOUR_RGB('',0.752941191196442,0.752941191196442,0.752941191196442);
#366=AXIS2_PLACEMENT_3D('',#415,#416,#417);
#367=COLOUR_RGB('',0.752941191196442,0.752941191196442,0.752941191196442);
#368=COLOUR_RGB('',0.752941191196442,0.752941191196442,0.752941191196442);
#369=AXIS2_PLACEMENT_3D('',#418,#419,#420);
#370=AXIS2_PLACEMENT_3D('',#421,#422,#423);
#371=COLOUR_RGB('',0.752941191196442,0.752941191196442,0.752941191196442);
#372=CARTESIAN_POINT('',(6.280127387243,6.1,0.0));
#373=CARTESIAN_POINT('',(-6.280127387243,6.1,0.0));
#374=AXIS2_PLACEMENT_3D('',#424,#425,#426);
#375=AXIS2_PLACEMENT_3D('',#427,#428,#429);
#376=COLOUR_RGB('',0.752941191196442,0.752941191196442,0.752941191196442);
#377=COLOUR_RGB('',0.752941191196442,0.752941191196442,0.752941191196442);
#378=COLOUR_RGB('',0.752941012382507,0.752941012382507,0.752941012382507);
#379=DIRECTION('',(0.484957535628124,-0.866025404083357,-0.121721765185009));
#380=CARTESIAN_POINT('',(-3.741955E-011,6.10000000006589,9.67395E-011));
#381=DIRECTION('',(8.52410159765336E-012,-1.0,-2.13950389901313E-012));
#382=DIRECTION('',(0.969915072263097,8.788503E-012,-0.243443530612074));
#383=DIRECTION('',(0.484957535615876,0.866025404092146,-0.121721765171278));
#384=CARTESIAN_POINT('',(-1.196279E-011,2.50000000012376,6.820014E-011));
#385=DIRECTION('',(-8.52410159765337E-012,1.0,2.13950389901313E-012));
#386=DIRECTION('',(0.969915072263097,8.788503E-012,-0.243443530612074));
#387=DIRECTION('',(-0.0,-1.0,0.0));
#388=CARTESIAN_POINT('',(0.0,0.0,0.0));
#389=DIRECTION('',(0.0,1.0,0.0));
#390=DIRECTION('',(-1.0,0.0,0.0));
#391=CARTESIAN_POINT('',(0.0,0.0,0.0));
#392=DIRECTION('',(0.0,1.0,0.0));
#393=DIRECTION('',(-1.0,0.0,0.0));
#394=DIRECTION('',(0.0,1.0,0.0));
#395=CARTESIAN_POINT('',(-3.848361E-015,-12.0,1.620926E-012));
#396=DIRECTION('',(0.0,-1.0,0.0));
#397=DIRECTION('',(0.0,0.0,1.0));
#398=DIRECTION('',(0.0,-1.0,-0.0));
#399=CARTESIAN_POINT('',(6.413935E-015,2.5,2.355893E-012));
#400=DIRECTION('',(0.0,1.0,0.0));
#401=DIRECTION('',(0.0,0.0,-1.0));
#402=DIRECTION('',(0.0,1.0,0.0));
#403=CARTESIAN_POINT('',(6.413935E-015,0.0,2.355893E-012));
#404=DIRECTION('',(0.0,-1.0,0.0));
#405=DIRECTION('',(0.0,0.0,-1.0));
#406=CARTESIAN_POINT('',(6.413935E-015,0.0,2.355893E-012));
#407=DIRECTION('',(0.0,-1.0,0.0));
#408=DIRECTION('',(0.0,0.0,-1.0));
#409=CARTESIAN_POINT('',(0.0,0.0,0.0));
#410=DIRECTION('',(0.0,1.0,0.0));
#411=DIRECTION('',(-1.0,0.0,0.0));
#412=CARTESIAN_POINT('',(6.413935E-015,2.5,2.355893E-012));
#413=DIRECTION('',(0.0,1.0,0.0));
#414=DIRECTION('',(0.0,0.0,-1.0));
#415=CARTESIAN_POINT('',(-3.848361E-015,-12.0,1.620926E-012));
#416=DIRECTION('',(0.0,-1.0,0.0));
#417=DIRECTION('',(0.0,0.0,1.0));
#418=CARTESIAN_POINT('',(-1.196279E-011,2.50000000012376,6.820014E-011));
#419=DIRECTION('',(-8.52410159765337E-012,1.0,2.13950389901313E-012));
#420=DIRECTION('',(0.969915072263097,8.788503E-012,-0.243443530612074));
#421=CARTESIAN_POINT('',(-3.741955E-011,6.10000000006589,9.67395E-011));
#422=DIRECTION('',(8.52410159765336E-012,-1.0,-2.13950389901313E-012));
#423=DIRECTION('',(0.969915072263097,8.788503E-012,-0.243443530612074));
#424=CARTESIAN_POINT('',(0.0,6.1,0.0));
#425=DIRECTION('',(0.0,1.0,0.0));
#426=DIRECTION('',(-1.0,0.0,0.0));
#427=CARTESIAN_POINT('',(0.0,6.1,0.0));
#428=DIRECTION('',(0.0,1.0,0.0));
#429=DIRECTION('',(-1.0,0.0,0.0));
ENDSEC;
END-ISO-10303-21;
