ISO-10303-21;
HEADER;
FILE_DESCRIPTION(('STEP AP214'),'1');
FILE_NAME('cctmp_069F4138-3E19-4A9B-A592-F92769F6960D_2024_05_13_08_47_01_0313_20420..stp','2024-05-13T06:47:01',('Bosch Rexroth AG'),('CADClick - www.CADClick.com'),'Spatial InterOp 3D',' ','unknown authorization - (Healing Option Enabled)');
FILE_SCHEMA(('AUTOMOTIVE_DESIGN'));
ENDSEC;
DATA;
#1=MECHANICAL_DESIGN_GEOMETRIC_PRESENTATION_REPRESENTATION(' ',(#10,#11,#12,#13,#14,#15,#16,#17,#18,#19,#20,#21,#22,#23,#24,#25,#26,#27),#6);
#2=PRODUCT_DEFINITION_CONTEXT('',#28,'design');
#3=APPLICATION_PROTOCOL_DEFINITION('INTERNATIONAL STANDARD','automotive_design',1994,#28);
#4=PRODUCT_CATEGORY_RELATIONSHIP('NONE','NONE',#29,#30);
#5=SHAPE_DEFINITION_REPRESENTATION(#31,#32);
#6= (GEOMETRIC_REPRESENTATION_CONTEXT(3)GLOBAL_UNCERTAINTY_ASSIGNED_CONTEXT((#35))GLOBAL_UNIT_ASSIGNED_CONTEXT((#37,#38,#39))REPRESENTATION_CONTEXT('NONE','WORKSPACE'));
#10=STYLED_ITEM('',(#41),#42);
#11=STYLED_ITEM('',(#43),#44);
#12=STYLED_ITEM('',(#45),#46);
#13=STYLED_ITEM('',(#47),#48);
#14=STYLED_ITEM('',(#49),#50);
#15=STYLED_ITEM('',(#51),#52);
#16=STYLED_ITEM('',(#53),#54);
#17=STYLED_ITEM('',(#55),#56);
#18=STYLED_ITEM('',(#57),#58);
#19=STYLED_ITEM('',(#59),#60);
#20=STYLED_ITEM('',(#61),#62);
#21=STYLED_ITEM('',(#63),#64);
#22=STYLED_ITEM('',(#65),#66);
#23=STYLED_ITEM('',(#67),#68);
#24=STYLED_ITEM('',(#69),#70);
#25=STYLED_ITEM('',(#71),#72);
#26=STYLED_ITEM('',(#73),#74);
#27=STYLED_ITEM('',(#75),#76);
#28=APPLICATION_CONTEXT(' ');
#29=PRODUCT_CATEGORY('part','NONE');
#30=PRODUCT_RELATED_PRODUCT_CATEGORY('detail',' ',(#77));
#31=PRODUCT_DEFINITION_SHAPE('NONE','NONE',#78);
#32=ADVANCED_BREP_SHAPE_REPRESENTATION('2024_05_13_08_47_01_0298',(#76,#79),#6);
#35=UNCERTAINTY_MEASURE_WITH_UNIT(LENGTH_MEASURE(1.0E-06),#37,'','');
#37= (CONVERSION_BASED_UNIT('MILLIMETRE',#82)LENGTH_UNIT()NAMED_UNIT(#85));
#38= (NAMED_UNIT(#87)PLANE_ANGLE_UNIT()SI_UNIT($,.RADIAN.));
#39= (NAMED_UNIT(#87)SOLID_ANGLE_UNIT()SI_UNIT($,.STERADIAN.));
#41=PRESENTATION_STYLE_ASSIGNMENT((#93));
#42=ADVANCED_FACE('',(#94),#95,.T.);
#43=PRESENTATION_STYLE_ASSIGNMENT((#96));
#44=ADVANCED_FACE('',(#97),#98,.T.);
#45=PRESENTATION_STYLE_ASSIGNMENT((#99));
#46=ADVANCED_FACE('',(#100),#101,.T.);
#47=PRESENTATION_STYLE_ASSIGNMENT((#102));
#48=ADVANCED_FACE('',(#103),#104,.T.);
#49=PRESENTATION_STYLE_ASSIGNMENT((#105));
#50=ADVANCED_FACE('',(#106),#107,.T.);
#51=PRESENTATION_STYLE_ASSIGNMENT((#108));
#52=ADVANCED_FACE('',(#109),#110,.T.);
#53=PRESENTATION_STYLE_ASSIGNMENT((#111));
#54=ADVANCED_FACE('',(#112),#113,.T.);
#55=PRESENTATION_STYLE_ASSIGNMENT((#114));
#56=ADVANCED_FACE('',(#115),#116,.T.);
#57=PRESENTATION_STYLE_ASSIGNMENT((#117));
#58=ADVANCED_FACE('',(#118),#119,.T.);
#59=PRESENTATION_STYLE_ASSIGNMENT((#120));
#60=ADVANCED_FACE('',(#121),#122,.T.);
#61=PRESENTATION_STYLE_ASSIGNMENT((#123));
#62=ADVANCED_FACE('',(#124),#125,.T.);
#63=PRESENTATION_STYLE_ASSIGNMENT((#126));
#64=ADVANCED_FACE('',(#127),#128,.T.);
#65=PRESENTATION_STYLE_ASSIGNMENT((#129));
#66=ADVANCED_FACE('',(#130),#131,.T.);
#67=PRESENTATION_STYLE_ASSIGNMENT((#132));
#68=ADVANCED_FACE('',(#133),#134,.T.);
#69=PRESENTATION_STYLE_ASSIGNMENT((#135));
#70=ADVANCED_FACE('',(#136),#137,.T.);
#71=PRESENTATION_STYLE_ASSIGNMENT((#138));
#72=ADVANCED_FACE('',(#139),#140,.T.);
#73=PRESENTATION_STYLE_ASSIGNMENT((#141));
#74=ADVANCED_FACE('',(#142),#143,.F.);
#75=PRESENTATION_STYLE_ASSIGNMENT((#144));
#76=MANIFOLD_SOLID_BREP('2024_05_13_08_47_01_0298',#145);
#77=PRODUCT('2024_05_13_08_47_01_0298','2024_05_13_08_47_01_0298','PART-2024_05_13_08_47_01_0298-DESC',(#146));
#78=PRODUCT_DEFINITION('','NONE',#147,#2);
#79=AXIS2_PLACEMENT_3D('',#148,#149,#150);
#82=LENGTH_MEASURE_WITH_UNIT(LENGTH_MEASURE(1.0),#151);
#85=DIMENSIONAL_EXPONENTS(1.0,0.0,0.0,0.0,0.0,0.0,0.0);
#87=DIMENSIONAL_EXPONENTS(0.0,0.0,0.0,0.0,0.0,0.0,0.0);
#93=SURFACE_STYLE_USAGE(.BOTH.,#152);
#94=FACE_OUTER_BOUND('',#153,.T.);
#95=PLANE('',#154);
#96=SURFACE_STYLE_USAGE(.BOTH.,#155);
#97=FACE_OUTER_BOUND('',#156,.T.);
#98=PLANE('',#157);
#99=SURFACE_STYLE_USAGE(.BOTH.,#158);
#100=FACE_OUTER_BOUND('',#159,.T.);
#101=PLANE('',#160);
#102=SURFACE_STYLE_USAGE(.BOTH.,#161);
#103=FACE_OUTER_BOUND('',#162,.T.);
#104=PLANE('',#163);
#105=SURFACE_STYLE_USAGE(.BOTH.,#164);
#106=FACE_OUTER_BOUND('',#165,.T.);
#107=PLANE('',#166);
#108=SURFACE_STYLE_USAGE(.BOTH.,#167);
#109=FACE_OUTER_BOUND('',#168,.T.);
#110=PLANE('',#169);
#111=SURFACE_STYLE_USAGE(.BOTH.,#170);
#112=FACE_OUTER_BOUND('',#171,.T.);
#113=PLANE('',#172);
#114=SURFACE_STYLE_USAGE(.BOTH.,#173);
#115=FACE_OUTER_BOUND('',#174,.T.);
#116=PLANE('',#175);
#117=SURFACE_STYLE_USAGE(.BOTH.,#176);
#118=FACE_OUTER_BOUND('',#177,.T.);
#119=PLANE('',#178);
#120=SURFACE_STYLE_USAGE(.BOTH.,#179);
#121=FACE_OUTER_BOUND('',#180,.T.);
#122=PLANE('',#181);
#123=SURFACE_STYLE_USAGE(.BOTH.,#182);
#124=FACE_OUTER_BOUND('',#183,.T.);
#125=PLANE('',#184);
#126=SURFACE_STYLE_USAGE(.BOTH.,#185);
#127=FACE_OUTER_BOUND('',#186,.T.);
#128=PLANE('',#187);
#129=SURFACE_STYLE_USAGE(.BOTH.,#188);
#130=FACE_OUTER_BOUND('',#189,.T.);
#131=PLANE('',#190);
#132=SURFACE_STYLE_USAGE(.BOTH.,#191);
#133=FACE_OUTER_BOUND('',#192,.T.);
#134=PLANE('',#193);
#135=SURFACE_STYLE_USAGE(.BOTH.,#194);
#136=FACE_OUTER_BOUND('',#195,.T.);
#137=PLANE('',#196);
#138=SURFACE_STYLE_USAGE(.BOTH.,#197);
#139=FACE_OUTER_BOUND('',#198,.T.);
#140=PLANE('',#199);
#141=SURFACE_STYLE_USAGE(.BOTH.,#200);
#142=FACE_OUTER_BOUND('',#201,.T.);
#143=PLANE('',#202);
#144=SURFACE_STYLE_USAGE(.BOTH.,#203);
#145=CLOSED_SHELL('',(#42,#44,#46,#48,#50,#52,#54,#56,#58,#60,#62,#64,#66,#68,#70,#72,#74));
#146=PRODUCT_CONTEXT('',#28,'mechanical');
#147=PRODUCT_DEFINITION_FORMATION_WITH_SPECIFIED_SOURCE(' ','NONE',#77,.NOT_KNOWN.);
#148=CARTESIAN_POINT('',(0.0,0.0,0.0));
#149=DIRECTION('',(0.0,0.0,1.0));
#150=DIRECTION('',(1.0,0.0,0.0));
#151= (NAMED_UNIT(#85)LENGTH_UNIT()SI_UNIT(.MILLI.,.METRE.));
#152=SURFACE_SIDE_STYLE('',(#205));
#153=EDGE_LOOP('',(#206,#207,#208,#209));
#154=AXIS2_PLACEMENT_3D('',#210,#211,#212);
#155=SURFACE_SIDE_STYLE('',(#213));
#156=EDGE_LOOP('',(#214,#215,#216,#217));
#157=AXIS2_PLACEMENT_3D('',#218,#219,#220);
#158=SURFACE_SIDE_STYLE('',(#221));
#159=EDGE_LOOP('',(#222,#223,#224,#225));
#160=AXIS2_PLACEMENT_3D('',#226,#227,#228);
#161=SURFACE_SIDE_STYLE('',(#229));
#162=EDGE_LOOP('',(#230,#231,#232,#233));
#163=AXIS2_PLACEMENT_3D('',#234,#235,#236);
#164=SURFACE_SIDE_STYLE('',(#237));
#165=EDGE_LOOP('',(#238,#239,#240,#241));
#166=AXIS2_PLACEMENT_3D('',#242,#243,#244);
#167=SURFACE_SIDE_STYLE('',(#245));
#168=EDGE_LOOP('',(#246,#247,#248,#249));
#169=AXIS2_PLACEMENT_3D('',#250,#251,#252);
#170=SURFACE_SIDE_STYLE('',(#253));
#171=EDGE_LOOP('',(#254,#255,#256,#257));
#172=AXIS2_PLACEMENT_3D('',#258,#259,#260);
#173=SURFACE_SIDE_STYLE('',(#261));
#174=EDGE_LOOP('',(#262,#263,#264,#265));
#175=AXIS2_PLACEMENT_3D('',#266,#267,#268);
#176=SURFACE_SIDE_STYLE('',(#269));
#177=EDGE_LOOP('',(#270,#271,#272,#273));
#178=AXIS2_PLACEMENT_3D('',#274,#275,#276);
#179=SURFACE_SIDE_STYLE('',(#277));
#180=EDGE_LOOP('',(#278,#279,#280,#281));
#181=AXIS2_PLACEMENT_3D('',#282,#283,#284);
#182=SURFACE_SIDE_STYLE('',(#285));
#183=EDGE_LOOP('',(#286,#287,#288,#289));
#184=AXIS2_PLACEMENT_3D('',#290,#291,#292);
#185=SURFACE_SIDE_STYLE('',(#293));
#186=EDGE_LOOP('',(#294,#295,#296,#297));
#187=AXIS2_PLACEMENT_3D('',#298,#299,#300);
#188=SURFACE_SIDE_STYLE('',(#301));
#189=EDGE_LOOP('',(#302,#303,#304,#305));
#190=AXIS2_PLACEMENT_3D('',#306,#307,#308);
#191=SURFACE_SIDE_STYLE('',(#309));
#192=EDGE_LOOP('',(#310,#311,#312,#313));
#193=AXIS2_PLACEMENT_3D('',#314,#315,#316);
#194=SURFACE_SIDE_STYLE('',(#317));
#195=EDGE_LOOP('',(#318,#319,#320,#321));
#196=AXIS2_PLACEMENT_3D('',#322,#323,#324);
#197=SURFACE_SIDE_STYLE('',(#325));
#198=EDGE_LOOP('',(#326,#327,#328,#329,#330,#331,#332,#333,#334,#335,#336,#337,#338,#339,#340));
#199=AXIS2_PLACEMENT_3D('',#341,#342,#343);
#200=SURFACE_SIDE_STYLE('',(#344));
#201=EDGE_LOOP('',(#345,#346,#347,#348,#349,#350,#351,#352,#353,#354,#355,#356,#357,#358,#359));
#202=AXIS2_PLACEMENT_3D('',#360,#361,#362);
#203=SURFACE_SIDE_STYLE('',(#363));
#205=SURFACE_STYLE_FILL_AREA(#364);
#206=ORIENTED_EDGE('',*,*,#365,.T.);
#207=ORIENTED_EDGE('',*,*,#366,.F.);
#208=ORIENTED_EDGE('',*,*,#367,.T.);
#209=ORIENTED_EDGE('',*,*,#368,.T.);
#210=CARTESIAN_POINT('',(0.0,-15.0,25.0));
#211=DIRECTION('',(0.0,-1.0,0.0));
#212=DIRECTION('',(0.0,0.0,-1.0));
#213=SURFACE_STYLE_FILL_AREA(#369);
#214=ORIENTED_EDGE('',*,*,#370,.T.);
#215=ORIENTED_EDGE('',*,*,#371,.F.);
#216=ORIENTED_EDGE('',*,*,#372,.T.);
#217=ORIENTED_EDGE('',*,*,#366,.T.);
#218=CARTESIAN_POINT('',(0.0,-7.5,49.869087015));
#219=DIRECTION('',(0.0,0.0174524061758519,0.999847695160955));
#220=DIRECTION('',(0.0,-0.999847695160955,0.0174524061758519));
#221=SURFACE_STYLE_FILL_AREA(#373);
#222=ORIENTED_EDGE('',*,*,#374,.T.);
#223=ORIENTED_EDGE('',*,*,#375,.F.);
#224=ORIENTED_EDGE('',*,*,#376,.T.);
#225=ORIENTED_EDGE('',*,*,#371,.T.);
#226=CARTESIAN_POINT('',(0.0,0.736311575,46.119087015));
#227=DIRECTION('',(0.0,0.979924704621687,0.199367934412984));
#228=DIRECTION('',(0.0,-0.199367934412984,0.979924704621687));
#229=SURFACE_STYLE_FILL_AREA(#377);
#230=ORIENTED_EDGE('',*,*,#378,.T.);
#231=ORIENTED_EDGE('',*,*,#379,.F.);
#232=ORIENTED_EDGE('',*,*,#380,.T.);
#233=ORIENTED_EDGE('',*,*,#375,.T.);
#234=CARTESIAN_POINT('',(0.0,8.236311575,24.879989245));
#235=DIRECTION('',(0.0,0.933580426511059,0.358367949509201));
#236=DIRECTION('',(0.0,-0.358367949509201,0.933580426511059));
#237=SURFACE_STYLE_FILL_AREA(#381);
#238=ORIENTED_EDGE('',*,*,#382,.T.);
#239=ORIENTED_EDGE('',*,*,#383,.F.);
#240=ORIENTED_EDGE('',*,*,#384,.T.);
#241=ORIENTED_EDGE('',*,*,#379,.T.);
#242=CARTESIAN_POINT('',(0.0,15.0,3.629989245));
#243=DIRECTION('',(0.0,1.0,0.0));
#244=DIRECTION('',(0.0,0.0,1.0));
#245=SURFACE_STYLE_FILL_AREA(#385);
#246=ORIENTED_EDGE('',*,*,#386,.T.);
#247=ORIENTED_EDGE('',*,*,#387,.F.);
#248=ORIENTED_EDGE('',*,*,#388,.T.);
#249=ORIENTED_EDGE('',*,*,#383,.T.);
#250=CARTESIAN_POINT('',(0.0,9.5,0.0));
#251=DIRECTION('',(0.0,0.0,-1.0));
#252=DIRECTION('',(0.0,1.0,0.0));
#253=SURFACE_STYLE_FILL_AREA(#389);
#254=ORIENTED_EDGE('',*,*,#390,.T.);
#255=ORIENTED_EDGE('',*,*,#391,.F.);
#256=ORIENTED_EDGE('',*,*,#392,.T.);
#257=ORIENTED_EDGE('',*,*,#387,.T.);
#258=CARTESIAN_POINT('',(0.0,4.0,1.1));
#259=DIRECTION('',(0.0,-1.0,0.0));
#260=DIRECTION('',(0.0,0.0,-1.0));
#261=SURFACE_STYLE_FILL_AREA(#393);
#262=ORIENTED_EDGE('',*,*,#394,.T.);
#263=ORIENTED_EDGE('',*,*,#395,.F.);
#264=ORIENTED_EDGE('',*,*,#396,.T.);
#265=ORIENTED_EDGE('',*,*,#391,.T.);
#266=CARTESIAN_POINT('',(0.0,5.671111515,2.2));
#267=DIRECTION('',(0.0,0.0,1.0));
#268=DIRECTION('',(0.0,-1.0,0.0));
#269=SURFACE_STYLE_FILL_AREA(#397);
#270=ORIENTED_EDGE('',*,*,#398,.T.);
#271=ORIENTED_EDGE('',*,*,#399,.F.);
#272=ORIENTED_EDGE('',*,*,#400,.T.);
#273=ORIENTED_EDGE('',*,*,#395,.T.);
#274=CARTESIAN_POINT('',(0.0,7.34222303,4.221781705));
#275=DIRECTION('',(0.0,-1.0,0.0));
#276=DIRECTION('',(0.0,0.0,-1.0));
#277=SURFACE_STYLE_FILL_AREA(#401);
#278=ORIENTED_EDGE('',*,*,#402,.T.);
#279=ORIENTED_EDGE('',*,*,#403,.F.);
#280=ORIENTED_EDGE('',*,*,#404,.T.);
#281=ORIENTED_EDGE('',*,*,#399,.T.);
#282=CARTESIAN_POINT('',(0.0,5.964004735,7.621781705));
#283=DIRECTION('',(0.0,-0.707106781186547,-0.707106781186548));
#284=DIRECTION('',(0.0,0.707106781186548,-0.707106781186547));
#285=SURFACE_STYLE_FILL_AREA(#405);
#286=ORIENTED_EDGE('',*,*,#406,.T.);
#287=ORIENTED_EDGE('',*,*,#407,.F.);
#288=ORIENTED_EDGE('',*,*,#408,.T.);
#289=ORIENTED_EDGE('',*,*,#403,.T.);
#290=CARTESIAN_POINT('',(0.0,-1.20710678,9.0));
#291=DIRECTION('',(0.0,0.0,-1.0));
#292=DIRECTION('',(0.0,1.0,0.0));
#293=SURFACE_STYLE_FILL_AREA(#409);
#294=ORIENTED_EDGE('',*,*,#410,.T.);
#295=ORIENTED_EDGE('',*,*,#411,.F.);
#296=ORIENTED_EDGE('',*,*,#412,.T.);
#297=ORIENTED_EDGE('',*,*,#407,.T.);
#298=CARTESIAN_POINT('',(0.0,-7.0,5.6));
#299=DIRECTION('',(0.0,1.0,0.0));
#300=DIRECTION('',(0.0,0.0,1.0));
#301=SURFACE_STYLE_FILL_AREA(#413);
#302=ORIENTED_EDGE('',*,*,#414,.T.);
#303=ORIENTED_EDGE('',*,*,#415,.F.);
#304=ORIENTED_EDGE('',*,*,#416,.T.);
#305=ORIENTED_EDGE('',*,*,#411,.T.);
#306=CARTESIAN_POINT('',(0.0,-5.5,2.2));
#307=DIRECTION('',(0.0,0.0,1.0));
#308=DIRECTION('',(0.0,-1.0,0.0));
#309=SURFACE_STYLE_FILL_AREA(#417);
#310=ORIENTED_EDGE('',*,*,#418,.T.);
#311=ORIENTED_EDGE('',*,*,#419,.F.);
#312=ORIENTED_EDGE('',*,*,#420,.T.);
#313=ORIENTED_EDGE('',*,*,#415,.T.);
#314=CARTESIAN_POINT('',(0.0,-4.0,1.1));
#315=DIRECTION('',(0.0,1.0,0.0));
#316=DIRECTION('',(0.0,0.0,1.0));
#317=SURFACE_STYLE_FILL_AREA(#421);
#318=ORIENTED_EDGE('',*,*,#422,.T.);
#319=ORIENTED_EDGE('',*,*,#368,.F.);
#320=ORIENTED_EDGE('',*,*,#423,.T.);
#321=ORIENTED_EDGE('',*,*,#419,.T.);
#322=CARTESIAN_POINT('',(0.0,-9.5,0.0));
#323=DIRECTION('',(0.0,0.0,-1.0));
#324=DIRECTION('',(0.0,1.0,0.0));
#325=SURFACE_STYLE_FILL_AREA(#424);
#326=ORIENTED_EDGE('',*,*,#423,.F.);
#327=ORIENTED_EDGE('',*,*,#367,.F.);
#328=ORIENTED_EDGE('',*,*,#372,.F.);
#329=ORIENTED_EDGE('',*,*,#376,.F.);
#330=ORIENTED_EDGE('',*,*,#380,.F.);
#331=ORIENTED_EDGE('',*,*,#384,.F.);
#332=ORIENTED_EDGE('',*,*,#388,.F.);
#333=ORIENTED_EDGE('',*,*,#392,.F.);
#334=ORIENTED_EDGE('',*,*,#396,.F.);
#335=ORIENTED_EDGE('',*,*,#400,.F.);
#336=ORIENTED_EDGE('',*,*,#404,.F.);
#337=ORIENTED_EDGE('',*,*,#408,.F.);
#338=ORIENTED_EDGE('',*,*,#412,.F.);
#339=ORIENTED_EDGE('',*,*,#416,.F.);
#340=ORIENTED_EDGE('',*,*,#420,.F.);
#341=CARTESIAN_POINT('',(0.0,-2.51309431724327,19.9032327622626));
#342=DIRECTION('',(-1.0,0.0,0.0));
#343=DIRECTION('',(0.0,0.0,1.0));
#344=SURFACE_STYLE_FILL_AREA(#425);
#345=ORIENTED_EDGE('',*,*,#365,.F.);
#346=ORIENTED_EDGE('',*,*,#422,.F.);
#347=ORIENTED_EDGE('',*,*,#418,.F.);
#348=ORIENTED_EDGE('',*,*,#414,.F.);
#349=ORIENTED_EDGE('',*,*,#410,.F.);
#350=ORIENTED_EDGE('',*,*,#406,.F.);
#351=ORIENTED_EDGE('',*,*,#402,.F.);
#352=ORIENTED_EDGE('',*,*,#398,.F.);
#353=ORIENTED_EDGE('',*,*,#394,.F.);
#354=ORIENTED_EDGE('',*,*,#390,.F.);
#355=ORIENTED_EDGE('',*,*,#386,.F.);
#356=ORIENTED_EDGE('',*,*,#382,.F.);
#357=ORIENTED_EDGE('',*,*,#378,.F.);
#358=ORIENTED_EDGE('',*,*,#374,.F.);
#359=ORIENTED_EDGE('',*,*,#370,.F.);
#360=CARTESIAN_POINT('',(1000.0,-2.51309431724327,19.9032327622626));
#361=DIRECTION('',(-1.0,0.0,0.0));
#362=DIRECTION('',(0.0,0.0,1.0));
#363=SURFACE_STYLE_FILL_AREA(#426);
#364=FILL_AREA_STYLE('',(#427));
#365=EDGE_CURVE('',#428,#429,#430,.T.);
#366=EDGE_CURVE('',#431,#429,#432,.T.);
#367=EDGE_CURVE('',#431,#433,#434,.T.);
#368=EDGE_CURVE('',#433,#428,#435,.T.);
#369=FILL_AREA_STYLE('',(#436));
#370=EDGE_CURVE('',#429,#437,#438,.T.);
#371=EDGE_CURVE('',#439,#437,#440,.T.);
#372=EDGE_CURVE('',#439,#431,#441,.T.);
#373=FILL_AREA_STYLE('',(#442));
#374=EDGE_CURVE('',#437,#443,#444,.T.);
#375=EDGE_CURVE('',#445,#443,#446,.T.);
#376=EDGE_CURVE('',#445,#439,#447,.T.);
#377=FILL_AREA_STYLE('',(#448));
#378=EDGE_CURVE('',#443,#449,#450,.T.);
#379=EDGE_CURVE('',#451,#449,#452,.T.);
#380=EDGE_CURVE('',#451,#445,#453,.T.);
#381=FILL_AREA_STYLE('',(#454));
#382=EDGE_CURVE('',#449,#455,#456,.T.);
#383=EDGE_CURVE('',#457,#455,#458,.T.);
#384=EDGE_CURVE('',#457,#451,#459,.T.);
#385=FILL_AREA_STYLE('',(#460));
#386=EDGE_CURVE('',#455,#461,#462,.T.);
#387=EDGE_CURVE('',#463,#461,#464,.T.);
#388=EDGE_CURVE('',#463,#457,#465,.T.);
#389=FILL_AREA_STYLE('',(#466));
#390=EDGE_CURVE('',#461,#467,#468,.T.);
#391=EDGE_CURVE('',#469,#467,#470,.T.);
#392=EDGE_CURVE('',#469,#463,#471,.T.);
#393=FILL_AREA_STYLE('',(#472));
#394=EDGE_CURVE('',#467,#473,#474,.T.);
#395=EDGE_CURVE('',#475,#473,#476,.T.);
#396=EDGE_CURVE('',#475,#469,#477,.T.);
#397=FILL_AREA_STYLE('',(#478));
#398=EDGE_CURVE('',#473,#479,#480,.T.);
#399=EDGE_CURVE('',#481,#479,#482,.T.);
#400=EDGE_CURVE('',#481,#475,#483,.T.);
#401=FILL_AREA_STYLE('',(#484));
#402=EDGE_CURVE('',#479,#485,#486,.T.);
#403=EDGE_CURVE('',#487,#485,#488,.T.);
#404=EDGE_CURVE('',#487,#481,#489,.T.);
#405=FILL_AREA_STYLE('',(#490));
#406=EDGE_CURVE('',#485,#491,#492,.T.);
#407=EDGE_CURVE('',#493,#491,#494,.T.);
#408=EDGE_CURVE('',#493,#487,#495,.T.);
#409=FILL_AREA_STYLE('',(#496));
#410=EDGE_CURVE('',#491,#497,#498,.T.);
#411=EDGE_CURVE('',#499,#497,#500,.T.);
#412=EDGE_CURVE('',#499,#493,#501,.T.);
#413=FILL_AREA_STYLE('',(#502));
#414=EDGE_CURVE('',#497,#503,#504,.T.);
#415=EDGE_CURVE('',#505,#503,#506,.T.);
#416=EDGE_CURVE('',#505,#499,#507,.T.);
#417=FILL_AREA_STYLE('',(#508));
#418=EDGE_CURVE('',#503,#509,#510,.T.);
#419=EDGE_CURVE('',#511,#509,#512,.T.);
#420=EDGE_CURVE('',#511,#505,#513,.T.);
#421=FILL_AREA_STYLE('',(#514));
#422=EDGE_CURVE('',#509,#428,#515,.T.);
#423=EDGE_CURVE('',#433,#511,#516,.T.);
#424=FILL_AREA_STYLE('',(#517));
#425=FILL_AREA_STYLE('',(#518));
#426=FILL_AREA_STYLE('',(#519));
#427=FILL_AREA_STYLE_COLOUR('',#520);
#428=VERTEX_POINT('',#521);
#429=VERTEX_POINT('',#522);
#430=LINE('',#523,#524);
#431=VERTEX_POINT('',#525);
#432=LINE('',#526,#527);
#433=VERTEX_POINT('',#528);
#434=LINE('',#529,#530);
#435=LINE('',#531,#532);
#436=FILL_AREA_STYLE_COLOUR('',#533);
#437=VERTEX_POINT('',#534);
#438=LINE('',#535,#536);
#439=VERTEX_POINT('',#537);
#440=LINE('',#538,#539);
#441=LINE('',#540,#541);
#442=FILL_AREA_STYLE_COLOUR('',#542);
#443=VERTEX_POINT('',#543);
#444=LINE('',#544,#545);
#445=VERTEX_POINT('',#546);
#446=LINE('',#547,#548);
#447=LINE('',#549,#550);
#448=FILL_AREA_STYLE_COLOUR('',#551);
#449=VERTEX_POINT('',#552);
#450=LINE('',#553,#554);
#451=VERTEX_POINT('',#555);
#452=LINE('',#556,#557);
#453=LINE('',#558,#559);
#454=FILL_AREA_STYLE_COLOUR('',#560);
#455=VERTEX_POINT('',#561);
#456=LINE('',#562,#563);
#457=VERTEX_POINT('',#564);
#458=LINE('',#565,#566);
#459=LINE('',#567,#568);
#460=FILL_AREA_STYLE_COLOUR('',#569);
#461=VERTEX_POINT('',#570);
#462=LINE('',#571,#572);
#463=VERTEX_POINT('',#573);
#464=LINE('',#574,#575);
#465=LINE('',#576,#577);
#466=FILL_AREA_STYLE_COLOUR('',#578);
#467=VERTEX_POINT('',#579);
#468=LINE('',#580,#581);
#469=VERTEX_POINT('',#582);
#470=LINE('',#583,#584);
#471=LINE('',#585,#586);
#472=FILL_AREA_STYLE_COLOUR('',#587);
#473=VERTEX_POINT('',#588);
#474=LINE('',#589,#590);
#475=VERTEX_POINT('',#591);
#476=LINE('',#592,#593);
#477=LINE('',#594,#595);
#478=FILL_AREA_STYLE_COLOUR('',#596);
#479=VERTEX_POINT('',#597);
#480=LINE('',#598,#599);
#481=VERTEX_POINT('',#600);
#482=LINE('',#601,#602);
#483=LINE('',#603,#604);
#484=FILL_AREA_STYLE_COLOUR('',#605);
#485=VERTEX_POINT('',#606);
#486=LINE('',#607,#608);
#487=VERTEX_POINT('',#609);
#488=LINE('',#610,#611);
#489=LINE('',#612,#613);
#490=FILL_AREA_STYLE_COLOUR('',#614);
#491=VERTEX_POINT('',#615);
#492=LINE('',#616,#617);
#493=VERTEX_POINT('',#618);
#494=LINE('',#619,#620);
#495=LINE('',#621,#622);
#496=FILL_AREA_STYLE_COLOUR('',#623);
#497=VERTEX_POINT('',#624);
#498=LINE('',#625,#626);
#499=VERTEX_POINT('',#627);
#500=LINE('',#628,#629);
#501=LINE('',#630,#631);
#502=FILL_AREA_STYLE_COLOUR('',#632);
#503=VERTEX_POINT('',#633);
#504=LINE('',#634,#635);
#505=VERTEX_POINT('',#636);
#506=LINE('',#637,#638);
#507=LINE('',#639,#640);
#508=FILL_AREA_STYLE_COLOUR('',#641);
#509=VERTEX_POINT('',#642);
#510=LINE('',#643,#644);
#511=VERTEX_POINT('',#645);
#512=LINE('',#646,#647);
#513=LINE('',#648,#649);
#514=FILL_AREA_STYLE_COLOUR('',#650);
#515=LINE('',#651,#652);
#516=LINE('',#653,#654);
#517=FILL_AREA_STYLE_COLOUR('',#655);
#518=FILL_AREA_STYLE_COLOUR('',#656);
#519=FILL_AREA_STYLE_COLOUR('',#657);
#520=COLOUR_RGB('',0.509803950786591,0.509803950786591,0.588235318660736);
#521=CARTESIAN_POINT('',(1000.0,-15.0,0.0));
#522=CARTESIAN_POINT('',(1000.0,-15.0,50.0));
#523=CARTESIAN_POINT('',(1000.0,-15.0,50.0));
#524=VECTOR('',#658,1.0);
#525=CARTESIAN_POINT('',(0.0,-15.0,50.0));
#526=CARTESIAN_POINT('',(0.0,-15.0,50.0));
#527=VECTOR('',#659,1.0);
#528=CARTESIAN_POINT('',(0.0,-15.0,0.0));
#529=CARTESIAN_POINT('',(0.0,-15.0,50.0));
#530=VECTOR('',#660,1.0);
#531=CARTESIAN_POINT('',(0.0,-15.0,0.0));
#532=VECTOR('',#661,1.0);
#533=COLOUR_RGB('',0.509803950786591,0.509803950786591,0.588235318660736);
#534=CARTESIAN_POINT('',(1000.0,0.0,49.73817403));
#535=CARTESIAN_POINT('',(1000.0,0.0,49.73817403));
#536=VECTOR('',#662,1.0);
#537=CARTESIAN_POINT('',(0.0,0.0,49.73817403));
#538=CARTESIAN_POINT('',(0.0,0.0,49.73817403));
#539=VECTOR('',#663,1.0);
#540=CARTESIAN_POINT('',(0.0,0.0,49.73817403));
#541=VECTOR('',#664,1.0);
#542=COLOUR_RGB('',0.509803950786591,0.509803950786591,0.588235318660736);
#543=CARTESIAN_POINT('',(1000.0,1.47262315,42.5));
#544=CARTESIAN_POINT('',(1000.0,1.47262315,42.5));
#545=VECTOR('',#665,1.0);
#546=CARTESIAN_POINT('',(0.0,1.47262315,42.5));
#547=CARTESIAN_POINT('',(0.0,1.47262315,42.5));
#548=VECTOR('',#666,1.0);
#549=CARTESIAN_POINT('',(0.0,1.47262315,42.5));
#550=VECTOR('',#667,1.0);
#551=COLOUR_RGB('',0.509803950786591,0.509803950786591,0.588235318660736);
#552=CARTESIAN_POINT('',(1000.0,15.0,7.25997849));
#553=CARTESIAN_POINT('',(1000.0,15.0,7.25997849));
#554=VECTOR('',#668,1.0);
#555=CARTESIAN_POINT('',(0.0,15.0,7.25997849));
#556=CARTESIAN_POINT('',(0.0,15.0,7.25997849));
#557=VECTOR('',#669,1.0);
#558=CARTESIAN_POINT('',(0.0,15.0,7.25997849));
#559=VECTOR('',#670,1.0);
#560=COLOUR_RGB('',0.509803950786591,0.509803950786591,0.588235318660736);
#561=CARTESIAN_POINT('',(1000.0,15.0,0.0));
#562=CARTESIAN_POINT('',(1000.0,15.0,0.0));
#563=VECTOR('',#671,1.0);
#564=CARTESIAN_POINT('',(0.0,15.0,0.0));
#565=CARTESIAN_POINT('',(0.0,15.0,0.0));
#566=VECTOR('',#672,1.0);
#567=CARTESIAN_POINT('',(0.0,15.0,0.0));
#568=VECTOR('',#673,1.0);
#569=COLOUR_RGB('',0.509803950786591,0.509803950786591,0.588235318660736);
#570=CARTESIAN_POINT('',(1000.0,4.0,0.0));
#571=CARTESIAN_POINT('',(1000.0,4.0,0.0));
#572=VECTOR('',#674,1.0);
#573=CARTESIAN_POINT('',(0.0,4.0,0.0));
#574=CARTESIAN_POINT('',(0.0,4.0,0.0));
#575=VECTOR('',#675,1.0);
#576=CARTESIAN_POINT('',(0.0,4.0,0.0));
#577=VECTOR('',#676,1.0);
#578=COLOUR_RGB('',0.509803950786591,0.509803950786591,0.588235318660736);
#579=CARTESIAN_POINT('',(1000.0,4.0,2.2));
#580=CARTESIAN_POINT('',(1000.0,4.0,2.2));
#581=VECTOR('',#677,1.0);
#582=CARTESIAN_POINT('',(0.0,4.0,2.2));
#583=CARTESIAN_POINT('',(0.0,4.0,2.2));
#584=VECTOR('',#678,1.0);
#585=CARTESIAN_POINT('',(0.0,4.0,2.2));
#586=VECTOR('',#679,1.0);
#587=COLOUR_RGB('',0.509803950786591,0.509803950786591,0.588235318660736);
#588=CARTESIAN_POINT('',(1000.0,7.34222303,2.2));
#589=CARTESIAN_POINT('',(1000.0,7.34222303,2.2));
#590=VECTOR('',#680,1.0);
#591=CARTESIAN_POINT('',(0.0,7.34222303,2.2));
#592=CARTESIAN_POINT('',(0.0,7.34222303,2.2));
#593=VECTOR('',#681,1.0);
#594=CARTESIAN_POINT('',(0.0,7.34222303,2.2));
#595=VECTOR('',#682,1.0);
#596=COLOUR_RGB('',0.509803950786591,0.509803950786591,0.588235318660736);
#597=CARTESIAN_POINT('',(1000.0,7.34222303,6.24356341));
#598=CARTESIAN_POINT('',(1000.0,7.34222303,6.24356341));
#599=VECTOR('',#683,1.0);
#600=CARTESIAN_POINT('',(0.0,7.34222303,6.24356341));
#601=CARTESIAN_POINT('',(0.0,7.34222303,6.24356341));
#602=VECTOR('',#684,1.0);
#603=CARTESIAN_POINT('',(0.0,7.34222303,6.24356341));
#604=VECTOR('',#685,1.0);
#605=COLOUR_RGB('',0.509803950786591,0.509803950786591,0.588235318660736);
#606=CARTESIAN_POINT('',(1000.0,4.58578644,9.0));
#607=CARTESIAN_POINT('',(1000.0,4.58578644,9.0));
#608=VECTOR('',#686,1.0);
#609=CARTESIAN_POINT('',(0.0,4.58578644,9.0));
#610=CARTESIAN_POINT('',(0.0,4.58578644,9.0));
#611=VECTOR('',#687,1.0);
#612=CARTESIAN_POINT('',(0.0,4.58578644,9.0));
#613=VECTOR('',#688,1.0);
#614=COLOUR_RGB('',0.509803950786591,0.509803950786591,0.588235318660736);
#615=CARTESIAN_POINT('',(1000.0,-7.0,9.0));
#616=CARTESIAN_POINT('',(1000.0,-7.0,9.0));
#617=VECTOR('',#689,1.0);
#618=CARTESIAN_POINT('',(0.0,-7.0,9.0));
#619=CARTESIAN_POINT('',(0.0,-7.0,9.0));
#620=VECTOR('',#690,1.0);
#621=CARTESIAN_POINT('',(0.0,-7.0,9.0));
#622=VECTOR('',#691,1.0);
#623=COLOUR_RGB('',0.509803950786591,0.509803950786591,0.588235318660736);
#624=CARTESIAN_POINT('',(1000.0,-7.0,2.2));
#625=CARTESIAN_POINT('',(1000.0,-7.0,2.2));
#626=VECTOR('',#692,1.0);
#627=CARTESIAN_POINT('',(0.0,-7.0,2.2));
#628=CARTESIAN_POINT('',(0.0,-7.0,2.2));
#629=VECTOR('',#693,1.0);
#630=CARTESIAN_POINT('',(0.0,-7.0,2.2));
#631=VECTOR('',#694,1.0);
#632=COLOUR_RGB('',0.509803950786591,0.509803950786591,0.588235318660736);
#633=CARTESIAN_POINT('',(1000.0,-4.0,2.2));
#634=CARTESIAN_POINT('',(1000.0,-4.0,2.2));
#635=VECTOR('',#695,1.0);
#636=CARTESIAN_POINT('',(0.0,-4.0,2.2));
#637=CARTESIAN_POINT('',(0.0,-4.0,2.2));
#638=VECTOR('',#696,1.0);
#639=CARTESIAN_POINT('',(0.0,-4.0,2.2));
#640=VECTOR('',#697,1.0);
#641=COLOUR_RGB('',0.509803950786591,0.509803950786591,0.588235318660736);
#642=CARTESIAN_POINT('',(1000.0,-4.0,0.0));
#643=CARTESIAN_POINT('',(1000.0,-4.0,0.0));
#644=VECTOR('',#698,1.0);
#645=CARTESIAN_POINT('',(0.0,-4.0,0.0));
#646=CARTESIAN_POINT('',(0.0,-4.0,0.0));
#647=VECTOR('',#699,1.0);
#648=CARTESIAN_POINT('',(0.0,-4.0,0.0));
#649=VECTOR('',#700,1.0);
#650=COLOUR_RGB('',0.509803950786591,0.509803950786591,0.588235318660736);
#651=CARTESIAN_POINT('',(1000.0,-15.0,0.0));
#652=VECTOR('',#701,1.0);
#653=CARTESIAN_POINT('',(0.0,-15.0,0.0));
#654=VECTOR('',#702,1.0);
#655=COLOUR_RGB('',0.509803950786591,0.509803950786591,0.588235318660736);
#656=COLOUR_RGB('',0.509803950786591,0.509803950786591,0.588235318660736);
#657=COLOUR_RGB('',0.509803950786591,0.509803950786591,0.588235318660736);
#658=DIRECTION('',(0.0,0.0,1.0));
#659=DIRECTION('',(1.0,0.0,0.0));
#660=DIRECTION('',(0.0,0.0,-1.0));
#661=DIRECTION('',(1.0,0.0,0.0));
#662=DIRECTION('',(0.0,0.999847695160955,-0.0174524061758519));
#663=DIRECTION('',(1.0,0.0,0.0));
#664=DIRECTION('',(0.0,-0.999847695160955,0.0174524061758519));
#665=DIRECTION('',(0.0,0.199367934412984,-0.979924704621687));
#666=DIRECTION('',(1.0,0.0,0.0));
#667=DIRECTION('',(0.0,-0.199367934412984,0.979924704621687));
#668=DIRECTION('',(0.0,0.358367949509201,-0.933580426511059));
#669=DIRECTION('',(1.0,0.0,0.0));
#670=DIRECTION('',(0.0,-0.358367949509201,0.933580426511059));
#671=DIRECTION('',(0.0,-0.0,-1.0));
#672=DIRECTION('',(1.0,0.0,0.0));
#673=DIRECTION('',(0.0,0.0,1.0));
#674=DIRECTION('',(0.0,-1.0,-0.0));
#675=DIRECTION('',(1.0,0.0,0.0));
#676=DIRECTION('',(0.0,1.0,0.0));
#677=DIRECTION('',(0.0,0.0,1.0));
#678=DIRECTION('',(1.0,0.0,0.0));
#679=DIRECTION('',(0.0,0.0,-1.0));
#680=DIRECTION('',(0.0,1.0,0.0));
#681=DIRECTION('',(1.0,0.0,0.0));
#682=DIRECTION('',(0.0,-1.0,0.0));
#683=DIRECTION('',(0.0,0.0,1.0));
#684=DIRECTION('',(1.0,0.0,0.0));
#685=DIRECTION('',(0.0,0.0,-1.0));
#686=DIRECTION('',(0.0,-0.707106781186548,0.707106781186547));
#687=DIRECTION('',(1.0,0.0,0.0));
#688=DIRECTION('',(0.0,0.707106781186548,-0.707106781186547));
#689=DIRECTION('',(0.0,-1.0,-0.0));
#690=DIRECTION('',(1.0,0.0,0.0));
#691=DIRECTION('',(0.0,1.0,0.0));
#692=DIRECTION('',(0.0,-0.0,-1.0));
#693=DIRECTION('',(1.0,0.0,0.0));
#694=DIRECTION('',(0.0,0.0,1.0));
#695=DIRECTION('',(0.0,1.0,0.0));
#696=DIRECTION('',(1.0,0.0,0.0));
#697=DIRECTION('',(0.0,-1.0,0.0));
#698=DIRECTION('',(0.0,-0.0,-1.0));
#699=DIRECTION('',(1.0,0.0,0.0));
#700=DIRECTION('',(0.0,0.0,1.0));
#701=DIRECTION('',(0.0,-1.0,-0.0));
#702=DIRECTION('',(0.0,1.0,0.0));
ENDSEC;
END-ISO-10303-21;
