ISO-10303-21;
HEADER;
FILE_DESCRIPTION(('STEP AP214'),'1');
FILE_NAME('cctmp_5F48973E-1165-4C41-A259-09D9F8DF09E7_2020_1_16_6_50_12_496..stp','2020-01-16T05:50:12',('Bosch Rexroth AG'),('CADClick - www.CADClick.com'),'Spatial InterOp 3D',' ','unknown authorization - (Healing Option Enabled)');
FILE_SCHEMA(('AUTOMOTIVE_DESIGN'));
ENDSEC;
DATA;
#1=MECHANICAL_DESIGN_GEOMETRIC_PRESENTATION_REPRESENTATION(' ',(#10,#11,#12,#13,#14,#15,#16,#17,#18,#19,#20),#6);
#2=PRODUCT_DEFINITION_CONTEXT('',#21,'design');
#3=APPLICATION_PROTOCOL_DEFINITION('INTERNATIONAL STANDARD','automotive_design',1994,#21);
#4=PRODUCT_CATEGORY_RELATIONSHIP('NONE','NONE',#22,#23);
#5=SHAPE_DEFINITION_REPRESENTATION(#24,#25);
#6= (GEOMETRIC_REPRESENTATION_CONTEXT(3)GLOBAL_UNCERTAINTY_ASSIGNED_CONTEXT((#28))GLOBAL_UNIT_ASSIGNED_CONTEXT((#30,#31,#32))REPRESENTATION_CONTEXT('NONE','WORKSPACE'));
#10=STYLED_ITEM('',(#34),#35);
#11=STYLED_ITEM('',(#36),#37);
#12=STYLED_ITEM('',(#38),#39);
#13=STYLED_ITEM('',(#40),#41);
#14=STYLED_ITEM('',(#42),#43);
#15=STYLED_ITEM('',(#44),#45);
#16=STYLED_ITEM('',(#46),#47);
#17=STYLED_ITEM('',(#48),#49);
#18=STYLED_ITEM('',(#50),#51);
#19=STYLED_ITEM('',(#52),#53);
#20=STYLED_ITEM('',(#54,#55),#56);
#21=APPLICATION_CONTEXT(' ');
#22=PRODUCT_CATEGORY('part','NONE');
#23=PRODUCT_RELATED_PRODUCT_CATEGORY('detail',' ',(#57));
#24=PRODUCT_DEFINITION_SHAPE('NONE','NONE',#58);
#25=ADVANCED_BREP_SHAPE_REPRESENTATION('2020_01_16__06-50-12-496',(#56,#59),#6);
#28=UNCERTAINTY_MEASURE_WITH_UNIT(LENGTH_MEASURE(1.0E-006),#30,'','');
#30= (CONVERSION_BASED_UNIT('MILLIMETRE',#62)LENGTH_UNIT()NAMED_UNIT(#65));
#31= (NAMED_UNIT(#67)PLANE_ANGLE_UNIT()SI_UNIT($,.RADIAN.));
#32= (NAMED_UNIT(#67)SOLID_ANGLE_UNIT()SI_UNIT($,.STERADIAN.));
#34=PRESENTATION_STYLE_ASSIGNMENT((#73));
#35=ADVANCED_FACE('',(#74),#75,.F.);
#36=PRESENTATION_STYLE_ASSIGNMENT((#76));
#37=ADVANCED_FACE('',(#77),#78,.F.);
#38=PRESENTATION_STYLE_ASSIGNMENT((#79));
#39=ADVANCED_FACE('',(#80),#81,.F.);
#40=PRESENTATION_STYLE_ASSIGNMENT((#82));
#41=ADVANCED_FACE('',(#83,#84),#85,.F.);
#42=PRESENTATION_STYLE_ASSIGNMENT((#86));
#43=ADVANCED_FACE('',(#87),#88,.T.);
#44=PRESENTATION_STYLE_ASSIGNMENT((#89));
#45=ADVANCED_FACE('',(#90),#91,.T.);
#46=PRESENTATION_STYLE_ASSIGNMENT((#92));
#47=ADVANCED_FACE('',(#93,#94),#95,.F.);
#48=PRESENTATION_STYLE_ASSIGNMENT((#96));
#49=ADVANCED_FACE('',(#97),#98,.T.);
#50=PRESENTATION_STYLE_ASSIGNMENT((#99));
#51=ADVANCED_FACE('',(#100),#101,.T.);
#52=PRESENTATION_STYLE_ASSIGNMENT((#102));
#53=ADVANCED_FACE('',(#103),#104,.T.);
#54=PRESENTATION_STYLE_ASSIGNMENT((#105));
#55=PRESENTATION_STYLE_ASSIGNMENT((#106));
#56=MANIFOLD_SOLID_BREP('2020_01_16__06-50-12-496',#107);
#57=PRODUCT('2020_01_16__06-50-12-496','','PART--DESC',(#108));
#58=PRODUCT_DEFINITION('','NONE',#109,#2);
#59=AXIS2_PLACEMENT_3D('',#110,#111,#112);
#62=LENGTH_MEASURE_WITH_UNIT(LENGTH_MEASURE(1.0),#113);
#65=DIMENSIONAL_EXPONENTS(1.0,0.0,0.0,0.0,0.0,0.0,0.0);
#67=DIMENSIONAL_EXPONENTS(0.0,0.0,0.0,0.0,0.0,0.0,0.0);
#73=SURFACE_STYLE_USAGE(.BOTH.,#114);
#74=FACE_OUTER_BOUND('',#115,.T.);
#75=PLANE('',#116);
#76=SURFACE_STYLE_USAGE(.BOTH.,#117);
#77=FACE_OUTER_BOUND('',#118,.T.);
#78=CYLINDRICAL_SURFACE('',#119,6.5);
#79=SURFACE_STYLE_USAGE(.BOTH.,#120);
#80=FACE_OUTER_BOUND('',#121,.T.);
#81=CYLINDRICAL_SURFACE('',#122,6.5);
#82=SURFACE_STYLE_USAGE(.BOTH.,#123);
#83=FACE_OUTER_BOUND('',#124,.T.);
#84=FACE_BOUND('',#125,.T.);
#85=PLANE('',#126);
#86=SURFACE_STYLE_USAGE(.BOTH.,#127);
#87=FACE_OUTER_BOUND('',#128,.T.);
#88=CYLINDRICAL_SURFACE('',#129,7.5);
#89=SURFACE_STYLE_USAGE(.BOTH.,#130);
#90=FACE_OUTER_BOUND('',#131,.T.);
#91=CYLINDRICAL_SURFACE('',#132,7.5);
#92=SURFACE_STYLE_USAGE(.BOTH.,#133);
#93=FACE_OUTER_BOUND('',#134,.T.);
#94=FACE_BOUND('',#135,.T.);
#95=PLANE('',#136);
#96=SURFACE_STYLE_USAGE(.BOTH.,#137);
#97=FACE_OUTER_BOUND('',#138,.T.);
#98=CYLINDRICAL_SURFACE('',#139,10.0);
#99=SURFACE_STYLE_USAGE(.BOTH.,#140);
#100=FACE_OUTER_BOUND('',#141,.T.);
#101=CYLINDRICAL_SURFACE('',#142,10.0);
#102=SURFACE_STYLE_USAGE(.BOTH.,#143);
#103=FACE_OUTER_BOUND('',#144,.T.);
#104=PLANE('',#145);
#105=SURFACE_STYLE_USAGE(.BOTH.,#146);
#106=CURVE_STYLE('',#147,POSITIVE_LENGTH_MEASURE(0.1),#148);
#107=CLOSED_SHELL('',(#35,#37,#39,#41,#43,#45,#47,#49,#51,#53));
#108=PRODUCT_CONTEXT('',#21,'mechanical');
#109=PRODUCT_DEFINITION_FORMATION_WITH_SPECIFIED_SOURCE(' ','NONE',#57,.NOT_KNOWN.);
#110=CARTESIAN_POINT('',(0.0,0.0,0.0));
#111=DIRECTION('',(0.0,0.0,1.0));
#112=DIRECTION('',(1.0,0.0,0.0));
#113= (NAMED_UNIT(#65)LENGTH_UNIT()SI_UNIT(.MILLI.,.METRE.));
#114=SURFACE_SIDE_STYLE('',(#150));
#115=EDGE_LOOP('',(#151,#152));
#116=AXIS2_PLACEMENT_3D('',#153,#154,#155);
#117=SURFACE_SIDE_STYLE('',(#156));
#118=EDGE_LOOP('',(#157,#158,#159,#160));
#119=AXIS2_PLACEMENT_3D('',#161,#162,#163);
#120=SURFACE_SIDE_STYLE('',(#164));
#121=EDGE_LOOP('',(#165,#166,#167,#168));
#122=AXIS2_PLACEMENT_3D('',#169,#170,#171);
#123=SURFACE_SIDE_STYLE('',(#172));
#124=EDGE_LOOP('',(#173,#174));
#125=EDGE_LOOP('',(#175,#176));
#126=AXIS2_PLACEMENT_3D('',#177,#178,#179);
#127=SURFACE_SIDE_STYLE('',(#180));
#128=EDGE_LOOP('',(#181,#182,#183,#184));
#129=AXIS2_PLACEMENT_3D('',#185,#186,#187);
#130=SURFACE_SIDE_STYLE('',(#188));
#131=EDGE_LOOP('',(#189,#190,#191,#192));
#132=AXIS2_PLACEMENT_3D('',#193,#194,#195);
#133=SURFACE_SIDE_STYLE('',(#196));
#134=EDGE_LOOP('',(#197,#198));
#135=EDGE_LOOP('',(#199,#200));
#136=AXIS2_PLACEMENT_3D('',#201,#202,#203);
#137=SURFACE_SIDE_STYLE('',(#204));
#138=EDGE_LOOP('',(#205,#206,#207,#208));
#139=AXIS2_PLACEMENT_3D('',#209,#210,#211);
#140=SURFACE_SIDE_STYLE('',(#212));
#141=EDGE_LOOP('',(#213,#214,#215,#216));
#142=AXIS2_PLACEMENT_3D('',#217,#218,#219);
#143=SURFACE_SIDE_STYLE('',(#220));
#144=EDGE_LOOP('',(#221,#222));
#145=AXIS2_PLACEMENT_3D('',#223,#224,#225);
#146=SURFACE_SIDE_STYLE('',(#226));
#147=DRAUGHTING_PRE_DEFINED_CURVE_FONT('continuous');
#148=COLOUR_RGB('',0.800000011920929,0.800000011920929,0.800000011920929);
#150=SURFACE_STYLE_FILL_AREA(#227);
#151=ORIENTED_EDGE('',*,*,#228,.F.);
#152=ORIENTED_EDGE('',*,*,#229,.T.);
#153=CARTESIAN_POINT('',(1.0,-1.237337E-016,0.0));
#154=DIRECTION('',(1.0,0.0,0.0));
#155=DIRECTION('',(0.0,1.0,-0.0));
#156=SURFACE_STYLE_FILL_AREA(#230);
#157=ORIENTED_EDGE('',*,*,#231,.T.);
#158=ORIENTED_EDGE('',*,*,#232,.F.);
#159=ORIENTED_EDGE('',*,*,#229,.F.);
#160=ORIENTED_EDGE('',*,*,#233,.T.);
#161=CARTESIAN_POINT('',(-8.5,2.203018E-015,0.0));
#162=DIRECTION('',(-1.0,-0.0,0.0));
#163=DIRECTION('',(0.0,-1.0,0.0));
#164=SURFACE_STYLE_FILL_AREA(#234);
#165=ORIENTED_EDGE('',*,*,#228,.T.);
#166=ORIENTED_EDGE('',*,*,#232,.T.);
#167=ORIENTED_EDGE('',*,*,#235,.F.);
#168=ORIENTED_EDGE('',*,*,#233,.F.);
#169=CARTESIAN_POINT('',(-8.5,2.203018E-015,0.0));
#170=DIRECTION('',(-1.0,-0.0,0.0));
#171=DIRECTION('',(0.0,-1.0,0.0));
#172=SURFACE_STYLE_FILL_AREA(#236);
#173=ORIENTED_EDGE('',*,*,#237,.T.);
#174=ORIENTED_EDGE('',*,*,#238,.F.);
#175=ORIENTED_EDGE('',*,*,#235,.T.);
#176=ORIENTED_EDGE('',*,*,#231,.F.);
#177=CARTESIAN_POINT('',(-8.0,2.080558E-015,0.0));
#178=DIRECTION('',(1.0,0.0,0.0));
#179=DIRECTION('',(0.0,1.0,-0.0));
#180=SURFACE_STYLE_FILL_AREA(#239);
#181=ORIENTED_EDGE('',*,*,#238,.T.);
#182=ORIENTED_EDGE('',*,*,#240,.T.);
#183=ORIENTED_EDGE('',*,*,#241,.F.);
#184=ORIENTED_EDGE('',*,*,#242,.F.);
#185=CARTESIAN_POINT('',(-8.5,2.203018E-015,0.0));
#186=DIRECTION('',(-1.0,-0.0,0.0));
#187=DIRECTION('',(0.0,-1.0,0.0));
#188=SURFACE_STYLE_FILL_AREA(#243);
#189=ORIENTED_EDGE('',*,*,#244,.T.);
#190=ORIENTED_EDGE('',*,*,#240,.F.);
#191=ORIENTED_EDGE('',*,*,#237,.F.);
#192=ORIENTED_EDGE('',*,*,#242,.T.);
#193=CARTESIAN_POINT('',(-8.5,2.203018E-015,0.0));
#194=DIRECTION('',(-1.0,-0.0,0.0));
#195=DIRECTION('',(0.0,-1.0,0.0));
#196=SURFACE_STYLE_FILL_AREA(#245);
#197=ORIENTED_EDGE('',*,*,#246,.T.);
#198=ORIENTED_EDGE('',*,*,#247,.F.);
#199=ORIENTED_EDGE('',*,*,#241,.T.);
#200=ORIENTED_EDGE('',*,*,#244,.F.);
#201=CARTESIAN_POINT('',(2.226106E-032,1.211876E-016,0.0));
#202=DIRECTION('',(1.0,0.0,0.0));
#203=DIRECTION('',(0.0,1.0,-0.0));
#204=SURFACE_STYLE_FILL_AREA(#248);
#205=ORIENTED_EDGE('',*,*,#247,.T.);
#206=ORIENTED_EDGE('',*,*,#249,.T.);
#207=ORIENTED_EDGE('',*,*,#250,.F.);
#208=ORIENTED_EDGE('',*,*,#251,.F.);
#209=CARTESIAN_POINT('',(-8.5,2.203018E-015,0.0));
#210=DIRECTION('',(-1.0,-0.0,0.0));
#211=DIRECTION('',(0.0,-1.0,0.0));
#212=SURFACE_STYLE_FILL_AREA(#252);
#213=ORIENTED_EDGE('',*,*,#253,.T.);
#214=ORIENTED_EDGE('',*,*,#249,.F.);
#215=ORIENTED_EDGE('',*,*,#246,.F.);
#216=ORIENTED_EDGE('',*,*,#251,.T.);
#217=CARTESIAN_POINT('',(-8.5,2.203018E-015,0.0));
#218=DIRECTION('',(-1.0,-0.0,0.0));
#219=DIRECTION('',(0.0,-1.0,0.0));
#220=SURFACE_STYLE_FILL_AREA(#254);
#221=ORIENTED_EDGE('',*,*,#250,.T.);
#222=ORIENTED_EDGE('',*,*,#253,.F.);
#223=CARTESIAN_POINT('',(2.0,-3.68655E-016,0.0));
#224=DIRECTION('',(1.0,0.0,0.0));
#225=DIRECTION('',(0.0,1.0,-0.0));
#226=SURFACE_STYLE_FILL_AREA(#255);
#227=FILL_AREA_STYLE('',(#256));
#228=EDGE_CURVE('',#257,#258,#259,.T.);
#229=EDGE_CURVE('',#257,#258,#260,.T.);
#230=FILL_AREA_STYLE('',(#261));
#231=EDGE_CURVE('',#262,#263,#264,.T.);
#232=EDGE_CURVE('',#258,#263,#265,.T.);
#233=EDGE_CURVE('',#257,#262,#266,.T.);
#234=FILL_AREA_STYLE('',(#267));
#235=EDGE_CURVE('',#262,#263,#268,.T.);
#236=FILL_AREA_STYLE('',(#269));
#237=EDGE_CURVE('',#270,#271,#272,.T.);
#238=EDGE_CURVE('',#270,#271,#273,.T.);
#239=FILL_AREA_STYLE('',(#274));
#240=EDGE_CURVE('',#271,#275,#276,.T.);
#241=EDGE_CURVE('',#277,#275,#278,.T.);
#242=EDGE_CURVE('',#270,#277,#279,.T.);
#243=FILL_AREA_STYLE('',(#280));
#244=EDGE_CURVE('',#277,#275,#281,.T.);
#245=FILL_AREA_STYLE('',(#282));
#246=EDGE_CURVE('',#283,#284,#285,.T.);
#247=EDGE_CURVE('',#283,#284,#286,.T.);
#248=FILL_AREA_STYLE('',(#287));
#249=EDGE_CURVE('',#284,#288,#289,.T.);
#250=EDGE_CURVE('',#290,#288,#291,.T.);
#251=EDGE_CURVE('',#283,#290,#292,.T.);
#252=FILL_AREA_STYLE('',(#293));
#253=EDGE_CURVE('',#290,#288,#294,.T.);
#254=FILL_AREA_STYLE('',(#295));
#255=FILL_AREA_STYLE('',(#296));
#256=FILL_AREA_STYLE_COLOUR('',#297);
#257=VERTEX_POINT('',#298);
#258=VERTEX_POINT('',#299);
#259=CIRCLE('',#300,6.5);
#260=CIRCLE('',#301,6.5);
#261=FILL_AREA_STYLE_COLOUR('',#302);
#262=VERTEX_POINT('',#303);
#263=VERTEX_POINT('',#304);
#264=CIRCLE('',#305,6.5);
#265=LINE('',#306,#307);
#266=LINE('',#308,#309);
#267=FILL_AREA_STYLE_COLOUR('',#310);
#268=CIRCLE('',#311,6.5);
#269=FILL_AREA_STYLE_COLOUR('',#312);
#270=VERTEX_POINT('',#313);
#271=VERTEX_POINT('',#314);
#272=CIRCLE('',#315,7.5);
#273=CIRCLE('',#316,7.5);
#274=FILL_AREA_STYLE_COLOUR('',#317);
#275=VERTEX_POINT('',#318);
#276=LINE('',#319,#320);
#277=VERTEX_POINT('',#321);
#278=CIRCLE('',#322,7.5);
#279=LINE('',#323,#324);
#280=FILL_AREA_STYLE_COLOUR('',#325);
#281=CIRCLE('',#326,7.5);
#282=FILL_AREA_STYLE_COLOUR('',#327);
#283=VERTEX_POINT('',#328);
#284=VERTEX_POINT('',#329);
#285=CIRCLE('',#330,10.0);
#286=CIRCLE('',#331,10.0);
#287=FILL_AREA_STYLE_COLOUR('',#332);
#288=VERTEX_POINT('',#333);
#289=LINE('',#334,#335);
#290=VERTEX_POINT('',#336);
#291=CIRCLE('',#337,10.0);
#292=LINE('',#338,#339);
#293=FILL_AREA_STYLE_COLOUR('',#340);
#294=CIRCLE('',#341,10.0);
#295=FILL_AREA_STYLE_COLOUR('',#342);
#296=FILL_AREA_STYLE_COLOUR('',#343);
#297=COLOUR_RGB('',0.800000011920929,0.800000011920929,0.800000011920929);
#298=CARTESIAN_POINT('',(0.999999999999999,-6.5,0.0));
#299=CARTESIAN_POINT('',(1.0,6.5,-9.621933E-016));
#300=AXIS2_PLACEMENT_3D('',#344,#345,#346);
#301=AXIS2_PLACEMENT_3D('',#347,#348,#349);
#302=COLOUR_RGB('',0.800000011920929,0.800000011920929,0.800000011920929);
#303=CARTESIAN_POINT('',(-8.0,-6.5,0.0));
#304=CARTESIAN_POINT('',(-8.0,6.5,-9.621933E-016));
#305=AXIS2_PLACEMENT_3D('',#350,#351,#352);
#306=CARTESIAN_POINT('',(1.0,6.5,-9.621933E-016));
#307=VECTOR('',#353,9.0);
#308=CARTESIAN_POINT('',(0.999999999999999,-6.5,0.0));
#309=VECTOR('',#354,9.0);
#310=COLOUR_RGB('',0.800000011920929,0.800000011920929,0.800000011920929);
#311=AXIS2_PLACEMENT_3D('',#355,#356,#357);
#312=COLOUR_RGB('',0.800000011920929,0.800000011920929,0.800000011920929);
#313=CARTESIAN_POINT('',(-8.0,-7.5,0.0));
#314=CARTESIAN_POINT('',(-8.0,7.5,-1.110223E-015));
#315=AXIS2_PLACEMENT_3D('',#358,#359,#360);
#316=AXIS2_PLACEMENT_3D('',#361,#362,#363);
#317=COLOUR_RGB('',0.800000011920929,0.800000011920929,0.800000011920929);
#318=CARTESIAN_POINT('',(1.377682E-015,7.5,-1.110223E-015));
#319=CARTESIAN_POINT('',(-8.0,7.5,-1.110223E-015));
#320=VECTOR('',#364,8.0);
#321=CARTESIAN_POINT('',(-1.377682E-015,-7.5,0.0));
#322=AXIS2_PLACEMENT_3D('',#365,#366,#367);
#323=CARTESIAN_POINT('',(-8.0,-7.5,0.0));
#324=VECTOR('',#368,8.0);
#325=COLOUR_RGB('',0.800000011920929,0.800000011920929,0.800000011920929);
#326=AXIS2_PLACEMENT_3D('',#369,#370,#371);
#327=COLOUR_RGB('',0.800000011920929,0.800000011920929,0.800000011920929);
#328=CARTESIAN_POINT('',(-2.041011E-015,-10.0,0.0));
#329=CARTESIAN_POINT('',(2.041011E-015,10.0,-1.480297E-015));
#330=AXIS2_PLACEMENT_3D('',#372,#373,#374);
#331=AXIS2_PLACEMENT_3D('',#375,#376,#377);
#332=COLOUR_RGB('',0.800000011920929,0.800000011920929,0.800000011920929);
#333=CARTESIAN_POINT('',(2.0,10.0,-1.480297E-015));
#334=CARTESIAN_POINT('',(2.041011E-015,10.0,-1.480297E-015));
#335=VECTOR('',#378,2.0);
#336=CARTESIAN_POINT('',(2.0,-10.0,0.0));
#337=AXIS2_PLACEMENT_3D('',#379,#380,#381);
#338=CARTESIAN_POINT('',(-2.041011E-015,-10.0,0.0));
#339=VECTOR('',#382,2.0);
#340=COLOUR_RGB('',0.800000011920929,0.800000011920929,0.800000011920929);
#341=AXIS2_PLACEMENT_3D('',#383,#384,#385);
#342=COLOUR_RGB('',0.800000011920929,0.800000011920929,0.800000011920929);
#343=COLOUR_RGB('',0.800000011920929,0.800000011920929,0.800000011920929);
#344=CARTESIAN_POINT('',(1.0,-1.237337E-016,0.0));
#345=DIRECTION('',(1.0,0.0,0.0));
#346=DIRECTION('',(0.0,-1.0,0.0));
#347=CARTESIAN_POINT('',(1.0,-1.237337E-016,0.0));
#348=DIRECTION('',(-1.0,0.0,0.0));
#349=DIRECTION('',(0.0,-1.0,0.0));
#350=CARTESIAN_POINT('',(-8.0,2.080558E-015,0.0));
#351=DIRECTION('',(-1.0,0.0,0.0));
#352=DIRECTION('',(0.0,-1.0,0.0));
#353=DIRECTION('',(-1.0,0.0,0.0));
#354=DIRECTION('',(-1.0,0.0,0.0));
#355=CARTESIAN_POINT('',(-8.0,2.080558E-015,0.0));
#356=DIRECTION('',(1.0,0.0,0.0));
#357=DIRECTION('',(0.0,-1.0,0.0));
#358=CARTESIAN_POINT('',(-8.0,2.080558E-015,0.0));
#359=DIRECTION('',(-1.0,0.0,0.0));
#360=DIRECTION('',(0.0,-1.0,0.0));
#361=CARTESIAN_POINT('',(-8.0,2.080558E-015,0.0));
#362=DIRECTION('',(1.0,0.0,0.0));
#363=DIRECTION('',(0.0,-1.0,0.0));
#364=DIRECTION('',(1.0,0.0,0.0));
#365=CARTESIAN_POINT('',(2.226106E-032,1.211876E-016,0.0));
#366=DIRECTION('',(1.0,0.0,0.0));
#367=DIRECTION('',(0.0,-1.0,0.0));
#368=DIRECTION('',(1.0,0.0,0.0));
#369=CARTESIAN_POINT('',(2.226106E-032,1.211876E-016,0.0));
#370=DIRECTION('',(-1.0,0.0,0.0));
#371=DIRECTION('',(0.0,-1.0,0.0));
#372=CARTESIAN_POINT('',(2.226106E-032,1.211876E-016,0.0));
#373=DIRECTION('',(-1.0,0.0,0.0));
#374=DIRECTION('',(0.0,-1.0,0.0));
#375=CARTESIAN_POINT('',(2.226106E-032,1.211876E-016,0.0));
#376=DIRECTION('',(1.0,0.0,0.0));
#377=DIRECTION('',(0.0,-1.0,0.0));
#378=DIRECTION('',(1.0,0.0,0.0));
#379=CARTESIAN_POINT('',(2.0,-3.68655E-016,0.0));
#380=DIRECTION('',(1.0,0.0,0.0));
#381=DIRECTION('',(0.0,-1.0,0.0));
#382=DIRECTION('',(1.0,0.0,0.0));
#383=CARTESIAN_POINT('',(2.0,-3.68655E-016,0.0));
#384=DIRECTION('',(-1.0,0.0,0.0));
#385=DIRECTION('',(0.0,-1.0,0.0));
ENDSEC;
END-ISO-10303-21;
