ISO-10303-21;
HEADER;
FILE_DESCRIPTION(('STEP AP214'),'1');
FILE_NAME('cctmp_B4CF8600-D720-46AB-8A39-59C4F2B9D11D_2020_1_16_6_43_33_317..stp','2020-01-16T05:43:33',('Bosch Rexroth AG'),('CADClick - www.CADClick.com'),'Spatial InterOp 3D',' ','unknown authorization - (Healing Option Enabled)');
FILE_SCHEMA(('AUTOMOTIVE_DESIGN'));
ENDSEC;
DATA;
#1=MECHANICAL_DESIGN_GEOMETRIC_PRESENTATION_REPRESENTATION(' ',(#10,#11,#12,#13,#14,#15,#16,#17,#18,#19,#20,#21,#22,#23),#6);
#2=PRODUCT_DEFINITION_CONTEXT('',#24,'design');
#3=APPLICATION_PROTOCOL_DEFINITION('INTERNATIONAL STANDARD','automotive_design',1994,#24);
#4=PRODUCT_CATEGORY_RELATIONSHIP('NONE','NONE',#25,#26);
#5=SHAPE_DEFINITION_REPRESENTATION(#27,#28);
#6= (GEOMETRIC_REPRESENTATION_CONTEXT(3)GLOBAL_UNCERTAINTY_ASSIGNED_CONTEXT((#31))GLOBAL_UNIT_ASSIGNED_CONTEXT((#33,#34,#35))REPRESENTATION_CONTEXT('NONE','WORKSPACE'));
#10=STYLED_ITEM('',(#37),#38);
#11=STYLED_ITEM('',(#39),#40);
#12=STYLED_ITEM('',(#41),#42);
#13=STYLED_ITEM('',(#43),#44);
#14=STYLED_ITEM('',(#45),#46);
#15=STYLED_ITEM('',(#47),#48);
#16=STYLED_ITEM('',(#49),#50);
#17=STYLED_ITEM('',(#51),#52);
#18=STYLED_ITEM('',(#53),#54);
#19=STYLED_ITEM('',(#55),#56);
#20=STYLED_ITEM('',(#57),#58);
#21=STYLED_ITEM('',(#59),#60);
#22=STYLED_ITEM('',(#61),#62);
#23=STYLED_ITEM('',(#63),#64);
#24=APPLICATION_CONTEXT(' ');
#25=PRODUCT_CATEGORY('part','NONE');
#26=PRODUCT_RELATED_PRODUCT_CATEGORY('detail',' ',(#65));
#27=PRODUCT_DEFINITION_SHAPE('NONE','NONE',#66);
#28=ADVANCED_BREP_SHAPE_REPRESENTATION('2020_01_16__06-43-33-317',(#64,#67),#6);
#31=UNCERTAINTY_MEASURE_WITH_UNIT(LENGTH_MEASURE(1.0E-006),#33,'','');
#33= (CONVERSION_BASED_UNIT('MILLIMETRE',#70)LENGTH_UNIT()NAMED_UNIT(#73));
#34= (NAMED_UNIT(#75)PLANE_ANGLE_UNIT()SI_UNIT($,.RADIAN.));
#35= (NAMED_UNIT(#75)SOLID_ANGLE_UNIT()SI_UNIT($,.STERADIAN.));
#37=PRESENTATION_STYLE_ASSIGNMENT((#81));
#38=ADVANCED_FACE('',(#82),#83,.T.);
#39=PRESENTATION_STYLE_ASSIGNMENT((#84));
#40=ADVANCED_FACE('',(#85),#86,.T.);
#41=PRESENTATION_STYLE_ASSIGNMENT((#87));
#42=ADVANCED_FACE('',(#88),#89,.F.);
#43=PRESENTATION_STYLE_ASSIGNMENT((#90));
#44=ADVANCED_FACE('',(#91),#92,.T.);
#45=PRESENTATION_STYLE_ASSIGNMENT((#93));
#46=ADVANCED_FACE('',(#94),#95,.T.);
#47=PRESENTATION_STYLE_ASSIGNMENT((#96));
#48=ADVANCED_FACE('',(#97,#98),#99,.T.);
#49=PRESENTATION_STYLE_ASSIGNMENT((#100));
#50=ADVANCED_FACE('',(#101,#102),#103,.F.);
#51=PRESENTATION_STYLE_ASSIGNMENT((#104));
#52=ADVANCED_FACE('',(#105),#106,.F.);
#53=PRESENTATION_STYLE_ASSIGNMENT((#107));
#54=ADVANCED_FACE('',(#108),#109,.T.);
#55=PRESENTATION_STYLE_ASSIGNMENT((#110));
#56=ADVANCED_FACE('',(#111),#112,.T.);
#57=PRESENTATION_STYLE_ASSIGNMENT((#113));
#58=ADVANCED_FACE('',(#114),#115,.T.);
#59=PRESENTATION_STYLE_ASSIGNMENT((#116));
#60=ADVANCED_FACE('',(#117),#118,.T.);
#61=PRESENTATION_STYLE_ASSIGNMENT((#119));
#62=ADVANCED_FACE('',(#120),#121,.T.);
#63=PRESENTATION_STYLE_ASSIGNMENT((#122));
#64=MANIFOLD_SOLID_BREP('2020_01_16__06-43-33-317',#123);
#65=PRODUCT('2020_01_16__06-43-33-317','','PART--DESC',(#124));
#66=PRODUCT_DEFINITION('','NONE',#125,#2);
#67=AXIS2_PLACEMENT_3D('',#126,#127,#128);
#70=LENGTH_MEASURE_WITH_UNIT(LENGTH_MEASURE(1.0),#129);
#73=DIMENSIONAL_EXPONENTS(1.0,0.0,0.0,0.0,0.0,0.0,0.0);
#75=DIMENSIONAL_EXPONENTS(0.0,0.0,0.0,0.0,0.0,0.0,0.0);
#81=SURFACE_STYLE_USAGE(.BOTH.,#130);
#82=FACE_OUTER_BOUND('',#131,.T.);
#83=CYLINDRICAL_SURFACE('',#132,9.0);
#84=SURFACE_STYLE_USAGE(.BOTH.,#133);
#85=FACE_OUTER_BOUND('',#134,.T.);
#86=CYLINDRICAL_SURFACE('',#135,11.75);
#87=SURFACE_STYLE_USAGE(.BOTH.,#136);
#88=FACE_OUTER_BOUND('',#137,.T.);
#89=CYLINDRICAL_SURFACE('',#138,9.1);
#90=SURFACE_STYLE_USAGE(.BOTH.,#139);
#91=FACE_OUTER_BOUND('',#140,.T.);
#92=CONICAL_SURFACE('',#141,16.7693495450416,0.7853981625);
#93=SURFACE_STYLE_USAGE(.BOTH.,#142);
#94=FACE_OUTER_BOUND('',#143,.T.);
#95=CONICAL_SURFACE('',#144,16.7693495450416,0.7853981625);
#96=SURFACE_STYLE_USAGE(.BOTH.,#145);
#97=FACE_OUTER_BOUND('',#146,.T.);
#98=FACE_BOUND('',#147,.T.);
#99=PLANE('',#148);
#100=SURFACE_STYLE_USAGE(.BOTH.,#149);
#101=FACE_OUTER_BOUND('',#150,.T.);
#102=FACE_BOUND('',#151,.T.);
#103=PLANE('',#152);
#104=SURFACE_STYLE_USAGE(.BOTH.,#153);
#105=FACE_OUTER_BOUND('',#154,.T.);
#106=CYLINDRICAL_SURFACE('',#155,9.1);
#107=SURFACE_STYLE_USAGE(.BOTH.,#156);
#108=FACE_OUTER_BOUND('',#157,.T.);
#109=PLANE('',#158);
#110=SURFACE_STYLE_USAGE(.BOTH.,#159);
#111=FACE_OUTER_BOUND('',#160,.T.);
#112=CYLINDRICAL_SURFACE('',#161,11.75);
#113=SURFACE_STYLE_USAGE(.BOTH.,#162);
#114=FACE_OUTER_BOUND('',#163,.T.);
#115=PLANE('',#164);
#116=SURFACE_STYLE_USAGE(.BOTH.,#165);
#117=FACE_OUTER_BOUND('',#166,.T.);
#118=CYLINDRICAL_SURFACE('',#167,9.0);
#119=SURFACE_STYLE_USAGE(.BOTH.,#168);
#120=FACE_OUTER_BOUND('',#169,.T.);
#121=PLANE('',#170);
#122=SURFACE_STYLE_USAGE(.BOTH.,#171);
#123=CLOSED_SHELL('',(#38,#40,#42,#44,#46,#48,#50,#52,#54,#56,#58,#60,#62));
#124=PRODUCT_CONTEXT('',#24,'mechanical');
#125=PRODUCT_DEFINITION_FORMATION_WITH_SPECIFIED_SOURCE(' ','NONE',#65,.NOT_KNOWN.);
#126=CARTESIAN_POINT('',(0.0,0.0,0.0));
#127=DIRECTION('',(0.0,0.0,1.0));
#128=DIRECTION('',(1.0,0.0,0.0));
#129= (NAMED_UNIT(#73)LENGTH_UNIT()SI_UNIT(.MILLI.,.METRE.));
#130=SURFACE_SIDE_STYLE('',(#173));
#131=EDGE_LOOP('',(#174,#175,#176,#177,#178));
#132=AXIS2_PLACEMENT_3D('',#179,#180,#181);
#133=SURFACE_SIDE_STYLE('',(#182));
#134=EDGE_LOOP('',(#183,#184,#185,#186));
#135=AXIS2_PLACEMENT_3D('',#187,#188,#189);
#136=SURFACE_SIDE_STYLE('',(#190));
#137=EDGE_LOOP('',(#191,#192,#193,#194));
#138=AXIS2_PLACEMENT_3D('',#195,#196,#197);
#139=SURFACE_SIDE_STYLE('',(#198));
#140=EDGE_LOOP('',(#199,#200,#201,#202,#203,#204,#205));
#141=AXIS2_PLACEMENT_3D('',#206,#207,#208);
#142=SURFACE_SIDE_STYLE('',(#209));
#143=EDGE_LOOP('',(#210,#211,#212,#213,#214,#215,#216));
#144=AXIS2_PLACEMENT_3D('',#217,#218,#219);
#145=SURFACE_SIDE_STYLE('',(#220));
#146=EDGE_LOOP('',(#221,#222,#223,#224,#225,#226));
#147=EDGE_LOOP('',(#227,#228));
#148=AXIS2_PLACEMENT_3D('',#229,#230,#231);
#149=SURFACE_SIDE_STYLE('',(#232));
#150=EDGE_LOOP('',(#233,#234,#235,#236,#237,#238));
#151=EDGE_LOOP('',(#239,#240));
#152=AXIS2_PLACEMENT_3D('',#241,#242,#243);
#153=SURFACE_SIDE_STYLE('',(#244));
#154=EDGE_LOOP('',(#245,#246,#247,#248));
#155=AXIS2_PLACEMENT_3D('',#249,#250,#251);
#156=SURFACE_SIDE_STYLE('',(#252));
#157=EDGE_LOOP('',(#253,#254,#255,#256));
#158=AXIS2_PLACEMENT_3D('',#257,#258,#259);
#159=SURFACE_SIDE_STYLE('',(#260));
#160=EDGE_LOOP('',(#261,#262,#263,#264));
#161=AXIS2_PLACEMENT_3D('',#265,#266,#267);
#162=SURFACE_SIDE_STYLE('',(#268));
#163=EDGE_LOOP('',(#269,#270,#271,#272));
#164=AXIS2_PLACEMENT_3D('',#273,#274,#275);
#165=SURFACE_SIDE_STYLE('',(#276));
#166=EDGE_LOOP('',(#277,#278,#279,#280,#281));
#167=AXIS2_PLACEMENT_3D('',#282,#283,#284);
#168=SURFACE_SIDE_STYLE('',(#285));
#169=EDGE_LOOP('',(#286,#287));
#170=AXIS2_PLACEMENT_3D('',#288,#289,#290);
#171=SURFACE_SIDE_STYLE('',(#291));
#173=SURFACE_STYLE_FILL_AREA(#292);
#174=ORIENTED_EDGE('',*,*,#293,.F.);
#175=ORIENTED_EDGE('',*,*,#294,.T.);
#176=ORIENTED_EDGE('',*,*,#295,.T.);
#177=ORIENTED_EDGE('',*,*,#296,.F.);
#178=ORIENTED_EDGE('',*,*,#297,.T.);
#179=CARTESIAN_POINT('',(4.733103E-014,148.0,0.0));
#180=DIRECTION('',(-0.0,-1.0,0.0));
#181=DIRECTION('',(-1.0,0.0,0.0));
#182=SURFACE_STYLE_FILL_AREA(#298);
#183=ORIENTED_EDGE('',*,*,#299,.F.);
#184=ORIENTED_EDGE('',*,*,#300,.F.);
#185=ORIENTED_EDGE('',*,*,#301,.F.);
#186=ORIENTED_EDGE('',*,*,#302,.T.);
#187=CARTESIAN_POINT('',(-1.183276E-014,-45.25,-11.75));
#188=DIRECTION('',(0.0,0.0,-1.0));
#189=DIRECTION('',(0.0,1.0,0.0));
#190=SURFACE_STYLE_FILL_AREA(#303);
#191=ORIENTED_EDGE('',*,*,#304,.F.);
#192=ORIENTED_EDGE('',*,*,#305,.F.);
#193=ORIENTED_EDGE('',*,*,#306,.F.);
#194=ORIENTED_EDGE('',*,*,#307,.T.);
#195=CARTESIAN_POINT('',(-1.183276E-014,-45.25,-11.75));
#196=DIRECTION('',(0.0,0.0,-1.0));
#197=DIRECTION('',(0.0,1.0,0.0));
#198=SURFACE_STYLE_FILL_AREA(#308);
#199=ORIENTED_EDGE('',*,*,#309,.F.);
#200=ORIENTED_EDGE('',*,*,#310,.F.);
#201=ORIENTED_EDGE('',*,*,#295,.F.);
#202=ORIENTED_EDGE('',*,*,#311,.F.);
#203=ORIENTED_EDGE('',*,*,#312,.F.);
#204=ORIENTED_EDGE('',*,*,#313,.F.);
#205=ORIENTED_EDGE('',*,*,#314,.F.);
#206=CARTESIAN_POINT('',(-3.725665E-015,-18.7693495450415,2.82456E-017));
#207=DIRECTION('',(-1.224606E-016,-1.0,-0.0));
#208=DIRECTION('',(0.0,0.0,-1.0));
#209=SURFACE_STYLE_FILL_AREA(#315);
#210=ORIENTED_EDGE('',*,*,#309,.T.);
#211=ORIENTED_EDGE('',*,*,#316,.F.);
#212=ORIENTED_EDGE('',*,*,#317,.F.);
#213=ORIENTED_EDGE('',*,*,#318,.F.);
#214=ORIENTED_EDGE('',*,*,#311,.T.);
#215=ORIENTED_EDGE('',*,*,#294,.F.);
#216=ORIENTED_EDGE('',*,*,#319,.F.);
#217=CARTESIAN_POINT('',(-3.725665E-015,-18.7693495450415,2.82456E-017));
#218=DIRECTION('',(-1.224606E-016,-1.0,-0.0));
#219=DIRECTION('',(0.0,0.0,-1.0));
#220=SURFACE_STYLE_FILL_AREA(#320);
#221=ORIENTED_EDGE('',*,*,#318,.T.);
#222=ORIENTED_EDGE('',*,*,#321,.T.);
#223=ORIENTED_EDGE('',*,*,#300,.T.);
#224=ORIENTED_EDGE('',*,*,#322,.T.);
#225=ORIENTED_EDGE('',*,*,#323,.T.);
#226=ORIENTED_EDGE('',*,*,#312,.T.);
#227=ORIENTED_EDGE('',*,*,#324,.T.);
#228=ORIENTED_EDGE('',*,*,#305,.T.);
#229=CARTESIAN_POINT('',(-1.183276E-014,-45.25,11.75));
#230=DIRECTION('',(0.0,0.0,1.0));
#231=DIRECTION('',(1.0,-0.0,0.0));
#232=SURFACE_STYLE_FILL_AREA(#325);
#233=ORIENTED_EDGE('',*,*,#326,.F.);
#234=ORIENTED_EDGE('',*,*,#327,.F.);
#235=ORIENTED_EDGE('',*,*,#302,.F.);
#236=ORIENTED_EDGE('',*,*,#328,.F.);
#237=ORIENTED_EDGE('',*,*,#316,.T.);
#238=ORIENTED_EDGE('',*,*,#314,.T.);
#239=ORIENTED_EDGE('',*,*,#329,.F.);
#240=ORIENTED_EDGE('',*,*,#307,.F.);
#241=CARTESIAN_POINT('',(-1.183276E-014,-45.25,-11.75));
#242=DIRECTION('',(0.0,0.0,1.0));
#243=DIRECTION('',(1.0,-0.0,0.0));
#244=SURFACE_STYLE_FILL_AREA(#330);
#245=ORIENTED_EDGE('',*,*,#304,.T.);
#246=ORIENTED_EDGE('',*,*,#329,.T.);
#247=ORIENTED_EDGE('',*,*,#306,.T.);
#248=ORIENTED_EDGE('',*,*,#324,.F.);
#249=CARTESIAN_POINT('',(-1.183276E-014,-45.25,-11.75));
#250=DIRECTION('',(0.0,0.0,-1.0));
#251=DIRECTION('',(0.0,1.0,0.0));
#252=SURFACE_STYLE_FILL_AREA(#331);
#253=ORIENTED_EDGE('',*,*,#328,.T.);
#254=ORIENTED_EDGE('',*,*,#301,.T.);
#255=ORIENTED_EDGE('',*,*,#321,.F.);
#256=ORIENTED_EDGE('',*,*,#317,.T.);
#257=CARTESIAN_POINT('',(-11.75,-11.0,-11.75));
#258=DIRECTION('',(-1.0,0.0,0.0));
#259=DIRECTION('',(0.0,0.0,1.0));
#260=SURFACE_STYLE_FILL_AREA(#332);
#261=ORIENTED_EDGE('',*,*,#299,.T.);
#262=ORIENTED_EDGE('',*,*,#327,.T.);
#263=ORIENTED_EDGE('',*,*,#333,.T.);
#264=ORIENTED_EDGE('',*,*,#322,.F.);
#265=CARTESIAN_POINT('',(-1.183276E-014,-45.25,-11.75));
#266=DIRECTION('',(0.0,0.0,-1.0));
#267=DIRECTION('',(0.0,1.0,0.0));
#268=SURFACE_STYLE_FILL_AREA(#334);
#269=ORIENTED_EDGE('',*,*,#323,.F.);
#270=ORIENTED_EDGE('',*,*,#333,.F.);
#271=ORIENTED_EDGE('',*,*,#326,.T.);
#272=ORIENTED_EDGE('',*,*,#313,.T.);
#273=CARTESIAN_POINT('',(11.75,-45.25,-11.75));
#274=DIRECTION('',(1.0,0.0,0.0));
#275=DIRECTION('',(0.0,1.0,-0.0));
#276=SURFACE_STYLE_FILL_AREA(#335);
#277=ORIENTED_EDGE('',*,*,#293,.T.);
#278=ORIENTED_EDGE('',*,*,#336,.T.);
#279=ORIENTED_EDGE('',*,*,#296,.T.);
#280=ORIENTED_EDGE('',*,*,#310,.T.);
#281=ORIENTED_EDGE('',*,*,#319,.T.);
#282=CARTESIAN_POINT('',(4.733103E-014,148.0,0.0));
#283=DIRECTION('',(-0.0,-1.0,0.0));
#284=DIRECTION('',(-1.0,0.0,0.0));
#285=SURFACE_STYLE_FILL_AREA(#337);
#286=ORIENTED_EDGE('',*,*,#336,.F.);
#287=ORIENTED_EDGE('',*,*,#297,.F.);
#288=CARTESIAN_POINT('',(4.754534E-014,149.75,0.0));
#289=DIRECTION('',(0.0,1.0,0.0));
#290=DIRECTION('',(1.0,0.0,-0.0));
#291=SURFACE_STYLE_FILL_AREA(#338);
#292=FILL_AREA_STYLE('',(#339));
#293=EDGE_CURVE('',#340,#341,#342,.T.);
#294=EDGE_CURVE('',#340,#343,#344,.T.);
#295=EDGE_CURVE('',#343,#345,#346,.T.);
#296=EDGE_CURVE('',#347,#345,#348,.T.);
#297=EDGE_CURVE('',#347,#341,#349,.T.);
#298=FILL_AREA_STYLE('',(#350));
#299=EDGE_CURVE('',#351,#352,#353,.T.);
#300=EDGE_CURVE('',#354,#351,#355,.T.);
#301=EDGE_CURVE('',#356,#354,#357,.T.);
#302=EDGE_CURVE('',#356,#352,#358,.T.);
#303=FILL_AREA_STYLE('',(#359));
#304=EDGE_CURVE('',#360,#361,#362,.T.);
#305=EDGE_CURVE('',#363,#360,#364,.T.);
#306=EDGE_CURVE('',#365,#363,#366,.T.);
#307=EDGE_CURVE('',#365,#361,#367,.T.);
#308=FILL_AREA_STYLE('',(#368));
#309=EDGE_CURVE('',#369,#370,#371,.T.);
#310=EDGE_CURVE('',#345,#369,#372,.T.);
#311=EDGE_CURVE('',#373,#343,#374,.T.);
#312=EDGE_CURVE('',#375,#373,#376,.T.);
#313=EDGE_CURVE('',#377,#375,#378,.T.);
#314=EDGE_CURVE('',#370,#377,#379,.T.);
#315=FILL_AREA_STYLE('',(#380));
#316=EDGE_CURVE('',#381,#370,#382,.T.);
#317=EDGE_CURVE('',#383,#381,#384,.T.);
#318=EDGE_CURVE('',#373,#383,#385,.T.);
#319=EDGE_CURVE('',#369,#340,#386,.T.);
#320=FILL_AREA_STYLE('',(#387));
#321=EDGE_CURVE('',#383,#354,#388,.T.);
#322=EDGE_CURVE('',#351,#389,#390,.T.);
#323=EDGE_CURVE('',#389,#375,#391,.T.);
#324=EDGE_CURVE('',#360,#363,#392,.T.);
#325=FILL_AREA_STYLE('',(#393));
#326=EDGE_CURVE('',#394,#377,#395,.T.);
#327=EDGE_CURVE('',#352,#394,#396,.T.);
#328=EDGE_CURVE('',#381,#356,#397,.T.);
#329=EDGE_CURVE('',#361,#365,#398,.T.);
#330=FILL_AREA_STYLE('',(#399));
#331=FILL_AREA_STYLE('',(#400));
#332=FILL_AREA_STYLE('',(#401));
#333=EDGE_CURVE('',#394,#389,#402,.T.);
#334=FILL_AREA_STYLE('',(#403));
#335=FILL_AREA_STYLE('',(#404));
#336=EDGE_CURVE('',#341,#347,#405,.T.);
#337=FILL_AREA_STYLE('',(#406));
#338=FILL_AREA_STYLE('',(#407));
#339=FILL_AREA_STYLE_COLOUR('',#408);
#340=VERTEX_POINT('',#409);
#341=VERTEX_POINT('',#410);
#342=LINE('',#411,#412);
#343=VERTEX_POINT('',#413);
#344=CIRCLE('',#414,9.0);
#345=VERTEX_POINT('',#415);
#346=CIRCLE('',#416,9.0);
#347=VERTEX_POINT('',#417);
#348=LINE('',#418,#419);
#349=CIRCLE('',#420,9.0);
#350=FILL_AREA_STYLE_COLOUR('',#421);
#351=VERTEX_POINT('',#422);
#352=VERTEX_POINT('',#423);
#353=LINE('',#424,#425);
#354=VERTEX_POINT('',#426);
#355=CIRCLE('',#427,11.75);
#356=VERTEX_POINT('',#428);
#357=LINE('',#429,#430);
#358=CIRCLE('',#431,11.75);
#359=FILL_AREA_STYLE_COLOUR('',#432);
#360=VERTEX_POINT('',#433);
#361=VERTEX_POINT('',#434);
#362=LINE('',#435,#436);
#363=VERTEX_POINT('',#437);
#364=CIRCLE('',#438,9.1);
#365=VERTEX_POINT('',#439);
#366=LINE('',#440,#441);
#367=CIRCLE('',#442,9.1);
#368=FILL_AREA_STYLE_COLOUR('',#443);
#369=VERTEX_POINT('',#444);
#370=VERTEX_POINT('',#445);
#371=LINE('',#446,#447);
#372=CIRCLE('',#448,9.0);
#373=VERTEX_POINT('',#449);
#374=LINE('',#450,#451);
#375=VERTEX_POINT('',#452);
#376=(B_SPLINE_CURVE(2,(#454,#455,#456),.UNSPECIFIED.,.F.,.F.)B_SPLINE_CURVE_WITH_KNOTS((3,3),(3.43170818332468,7.03988636271921),.UNSPECIFIED.)RATIONAL_B_SPLINE_CURVE((2.38833777453424,2.88297872340425,2.88297872340426))BOUNDED_CURVE()REPRESENTATION_ITEM('')GEOMETRIC_REPRESENTATION_ITEM()CURVE());
#377=VERTEX_POINT('',#463);
#378=(B_SPLINE_CURVE(2,(#465,#466,#467),.UNSPECIFIED.,.F.,.F.)B_SPLINE_CURVE_WITH_KNOTS((3,3),(2.44705174271692,8.27908456072432),.UNSPECIFIED.)RATIONAL_B_SPLINE_CURVE((1.97412421216114,2.79183323464738,1.97412421216114))BOUNDED_CURVE()REPRESENTATION_ITEM('')GEOMETRIC_REPRESENTATION_ITEM()CURVE());
#379=(B_SPLINE_CURVE(2,(#475,#476,#477),.UNSPECIFIED.,.F.,.F.)B_SPLINE_CURVE_WITH_KNOTS((3,3),(7.03988636271923,10.6480645421138),.UNSPECIFIED.)RATIONAL_B_SPLINE_CURVE((2.88297872340426,2.88297872340425,2.38833777453424))BOUNDED_CURVE()REPRESENTATION_ITEM('')GEOMETRIC_REPRESENTATION_ITEM()CURVE());
#380=FILL_AREA_STYLE_COLOUR('',#484);
#381=VERTEX_POINT('',#485);
#382=(B_SPLINE_CURVE(2,(#487,#488,#489),.UNSPECIFIED.,.F.,.F.)B_SPLINE_CURVE_WITH_KNOTS((3,3),(3.43170818332467,7.03988636271923),.UNSPECIFIED.)RATIONAL_B_SPLINE_CURVE((2.38833777453424,2.88297872340426,2.88297872340426))BOUNDED_CURVE()REPRESENTATION_ITEM('')GEOMETRIC_REPRESENTATION_ITEM()CURVE());
#383=VERTEX_POINT('',#496);
#384=(B_SPLINE_CURVE(2,(#498,#499,#500),.UNSPECIFIED.,.F.,.F.)B_SPLINE_CURVE_WITH_KNOTS((3,3),(2.44705174271692,8.27908456072432),.UNSPECIFIED.)RATIONAL_B_SPLINE_CURVE((1.97412421216113,2.79183323464738,1.97412421216113))BOUNDED_CURVE()REPRESENTATION_ITEM('')GEOMETRIC_REPRESENTATION_ITEM()CURVE());
#385=(B_SPLINE_CURVE(2,(#508,#509,#510),.UNSPECIFIED.,.F.,.F.)B_SPLINE_CURVE_WITH_KNOTS((3,3),(7.03988636271921,10.6480645421138),.UNSPECIFIED.)RATIONAL_B_SPLINE_CURVE((2.88297872340426,2.88297872340426,2.38833777453424))BOUNDED_CURVE()REPRESENTATION_ITEM('')GEOMETRIC_REPRESENTATION_ITEM()CURVE());
#386=CIRCLE('',#517,9.0);
#387=FILL_AREA_STYLE_COLOUR('',#518);
#388=LINE('',#519,#520);
#389=VERTEX_POINT('',#521);
#390=CIRCLE('',#522,11.75);
#391=LINE('',#523,#524);
#392=CIRCLE('',#525,9.1);
#393=FILL_AREA_STYLE_COLOUR('',#526);
#394=VERTEX_POINT('',#527);
#395=LINE('',#528,#529);
#396=CIRCLE('',#530,11.75);
#397=LINE('',#531,#532);
#398=CIRCLE('',#533,9.1);
#399=FILL_AREA_STYLE_COLOUR('',#534);
#400=FILL_AREA_STYLE_COLOUR('',#535);
#401=FILL_AREA_STYLE_COLOUR('',#536);
#402=LINE('',#537,#538);
#403=FILL_AREA_STYLE_COLOUR('',#539);
#404=FILL_AREA_STYLE_COLOUR('',#540);
#405=CIRCLE('',#541,9.0);
#406=FILL_AREA_STYLE_COLOUR('',#542);
#407=FILL_AREA_STYLE_COLOUR('',#543);
#408=COLOUR_RGB('',0.752941191196442,0.752941191196442,0.752941191196442);
#409=CARTESIAN_POINT('',(-9.0,-11.0,1.102146E-015));
#410=CARTESIAN_POINT('',(-8.99999999999996,149.75,0.0));
#411=CARTESIAN_POINT('',(-8.99999999999995,148.0,1.10218211923262E-015));
#412=VECTOR('',#544,1.0);
#413=CARTESIAN_POINT('',(-3.8764079123371E-015,-11.0,9.0));
#414=AXIS2_PLACEMENT_3D('',#545,#546,#547);
#415=CARTESIAN_POINT('',(9.0,-11.0,-1.10218211923261E-015));
#416=AXIS2_PLACEMENT_3D('',#548,#549,#550);
#417=CARTESIAN_POINT('',(9.00000000000005,149.75,-1.10218211923262E-015));
#418=CARTESIAN_POINT('',(9.00000000000005,148.0,-1.10218211923262E-015));
#419=VECTOR('',#551,1.0);
#420=AXIS2_PLACEMENT_3D('',#552,#553,#554);
#421=COLOUR_RGB('',0.752941191196442,0.752941191196442,0.752941191196442);
#422=CARTESIAN_POINT('',(-1.03938000110019E-014,-57.0,11.75));
#423=CARTESIAN_POINT('',(-1.03938000110019E-014,-57.0,-11.75));
#424=CARTESIAN_POINT('',(-1.03938000110019E-014,-57.0,-11.75));
#425=VECTOR('',#555,1.0);
#426=CARTESIAN_POINT('',(-11.75,-45.25,11.75));
#427=AXIS2_PLACEMENT_3D('',#556,#557,#558);
#428=CARTESIAN_POINT('',(-11.75,-45.25,-11.75));
#429=CARTESIAN_POINT('',(-11.75,-45.25,-11.75));
#430=VECTOR('',#559,23.5);
#431=AXIS2_PLACEMENT_3D('',#560,#561,#562);
#432=COLOUR_RGB('',0.752941191196442,0.752941191196442,0.752941191196442);
#433=CARTESIAN_POINT('',(-7.932388E-015,-36.15,11.75));
#434=CARTESIAN_POINT('',(-7.932388E-015,-36.15,-11.75));
#435=CARTESIAN_POINT('',(-1.29471885872241E-014,-36.15,-11.75));
#436=VECTOR('',#563,1.0);
#437=CARTESIAN_POINT('',(-1.07183314127759E-014,-54.35,11.75));
#438=AXIS2_PLACEMENT_3D('',#564,#565,#566);
#439=CARTESIAN_POINT('',(-1.07183314127759E-014,-54.35,-11.75));
#440=CARTESIAN_POINT('',(-1.07183314127759E-014,-54.35,-11.75));
#441=VECTOR('',#567,1.0);
#442=AXIS2_PLACEMENT_3D('',#568,#569,#570);
#443=COLOUR_RGB('',0.752941191196442,0.752941191196442,0.752941191196442);
#444=CARTESIAN_POINT('',(-1.67204367387187E-015,-11.0,-9.0));
#445=CARTESIAN_POINT('',(-2.188984E-015,-13.75,-11.75));
#446=CARTESIAN_POINT('',(-1.67201197558817E-015,-18.7693495450415,-16.7693495450416));
#447=VECTOR('',#571,1.0);
#448=AXIS2_PLACEMENT_3D('',#572,#573,#574);
#449=CARTESIAN_POINT('',(-1.300805E-015,-13.75,11.75));
#450=CARTESIAN_POINT('',(-5.77931802441182E-015,-18.7693495450415,16.7693495450416));
#451=VECTOR('',#575,1.0);
#452=CARTESIAN_POINT('',(11.75,-18.6170093578839,11.75));
#454=CARTESIAN_POINT('',(11.7499999999999,-18.6170093578838,11.75));
#455=CARTESIAN_POINT('',(4.86700935788384,-13.75,11.75));
#456=CARTESIAN_POINT('',(2.34138252041981E-014,-13.75,11.75));
#463=CARTESIAN_POINT('',(11.75,-18.6170093578839,-11.75));
#465=CARTESIAN_POINT('',(11.75,-18.6170093578839,-11.75));
#466=CARTESIAN_POINT('',(11.75,-10.3085046789419,-2.66453525910038E-015));
#467=CARTESIAN_POINT('',(11.75,-18.6170093578839,11.75));
#475=CARTESIAN_POINT('',(4.55953438187016E-014,-13.75,-11.75));
#476=CARTESIAN_POINT('',(4.86700935788386,-13.75,-11.75));
#477=CARTESIAN_POINT('',(11.7499999999999,-18.6170093578838,-11.75));
#484=COLOUR_RGB('',0.752941191196442,0.752941191196442,0.752941191196442);
#485=CARTESIAN_POINT('',(-11.75,-18.6170093578839,-11.75));
#487=CARTESIAN_POINT('',(-11.7499999999999,-18.6170093578838,-11.75));
#488=CARTESIAN_POINT('',(-4.86700935788381,-13.75,-11.75));
#489=CARTESIAN_POINT('',(4.55953438187016E-014,-13.75,-11.75));
#496=CARTESIAN_POINT('',(-11.75,-18.6170093578839,11.75));
#498=CARTESIAN_POINT('',(-11.75,-18.6170093578839,11.75));
#499=CARTESIAN_POINT('',(-11.75,-10.3085046789419,-4.44089209850063E-016));
#500=CARTESIAN_POINT('',(-11.75,-18.6170093578839,-11.75));
#508=CARTESIAN_POINT('',(2.34138252041981E-014,-13.75,11.75));
#509=CARTESIAN_POINT('',(-4.86700935788382,-13.75,11.75));
#510=CARTESIAN_POINT('',(-11.7499999999999,-18.6170093578838,11.75));
#517=AXIS2_PLACEMENT_3D('',#576,#577,#578);
#518=COLOUR_RGB('',0.752941191196442,0.752941191196442,0.752941191196442);
#519=CARTESIAN_POINT('',(-11.75,-18.6170093578839,11.75));
#520=VECTOR('',#579,26.6329906421162);
#521=CARTESIAN_POINT('',(11.75,-45.25,11.75));
#522=AXIS2_PLACEMENT_3D('',#580,#581,#582);
#523=CARTESIAN_POINT('',(11.75,-45.25,11.75));
#524=VECTOR('',#583,26.6329906421161);
#525=AXIS2_PLACEMENT_3D('',#584,#585,#586);
#526=COLOUR_RGB('',0.752941191196442,0.752941191196442,0.752941191196442);
#527=CARTESIAN_POINT('',(11.75,-45.25,-11.75));
#528=CARTESIAN_POINT('',(11.75,-45.25,-11.75));
#529=VECTOR('',#587,26.6329906421161);
#530=AXIS2_PLACEMENT_3D('',#588,#589,#590);
#531=CARTESIAN_POINT('',(-11.75,-18.6170093578839,-11.75));
#532=VECTOR('',#591,26.6329906421162);
#533=AXIS2_PLACEMENT_3D('',#592,#593,#594);
#534=COLOUR_RGB('',0.752941191196442,0.752941191196442,0.752941191196442);
#535=COLOUR_RGB('',0.752941191196442,0.752941191196442,0.752941191196442);
#536=COLOUR_RGB('',0.752941191196442,0.752941191196442,0.752941191196442);
#537=CARTESIAN_POINT('',(11.75,-45.25,-11.75));
#538=VECTOR('',#595,23.5);
#539=COLOUR_RGB('',0.752941191196442,0.752941191196442,0.752941191196442);
#540=COLOUR_RGB('',0.752941191196442,0.752941191196442,0.752941191196442);
#541=AXIS2_PLACEMENT_3D('',#596,#597,#598);
#542=COLOUR_RGB('',0.752941191196442,0.752941191196442,0.752941191196442);
#543=COLOUR_RGB('',0.752941012382507,0.752941012382507,0.752941012382507);
#544=DIRECTION('',(-0.0,1.0,-0.0));
#545=CARTESIAN_POINT('',(-1.347067E-015,-11.0,0.0));
#546=DIRECTION('',(-0.0,1.0,0.0));
#547=DIRECTION('',(1.0,0.0,0.0));
#548=CARTESIAN_POINT('',(-1.347067E-015,-11.0,0.0));
#549=DIRECTION('',(-0.0,1.0,0.0));
#550=DIRECTION('',(1.0,0.0,0.0));
#551=DIRECTION('',(-0.0,-1.0,0.0));
#552=CARTESIAN_POINT('',(4.754534E-014,149.75,0.0));
#553=DIRECTION('',(0.0,-1.0,0.0));
#554=DIRECTION('',(-1.0,0.0,0.0));
#555=DIRECTION('',(0.0,0.0,-1.0));
#556=CARTESIAN_POINT('',(-1.183276E-014,-45.25,11.75));
#557=DIRECTION('',(0.0,0.0,1.0));
#558=DIRECTION('',(-1.0,0.0,0.0));
#559=DIRECTION('',(0.0,0.0,1.0));
#560=CARTESIAN_POINT('',(-1.183276E-014,-45.25,-11.75));
#561=DIRECTION('',(0.0,0.0,1.0));
#562=DIRECTION('',(-1.0,0.0,0.0));
#563=DIRECTION('',(0.0,-0.0,-1.0));
#564=CARTESIAN_POINT('',(-1.183276E-014,-45.25,11.75));
#565=DIRECTION('',(0.0,0.0,-1.0));
#566=DIRECTION('',(0.0,1.0,0.0));
#567=DIRECTION('',(0.0,-0.0,1.0));
#568=CARTESIAN_POINT('',(-1.183276E-014,-45.25,-11.75));
#569=DIRECTION('',(0.0,0.0,-1.0));
#570=DIRECTION('',(0.0,1.0,0.0));
#571=DIRECTION('',(2.88477994844031E-021,-0.707106781821139,-0.707106780551956));
#572=CARTESIAN_POINT('',(-1.347067E-015,-11.0,0.0));
#573=DIRECTION('',(-0.0,1.0,0.0));
#574=DIRECTION('',(1.0,0.0,0.0));
#575=DIRECTION('',(1.7318832631172E-016,0.707106781821139,-0.707106780551956));
#576=CARTESIAN_POINT('',(-1.347067E-015,-11.0,0.0));
#577=DIRECTION('',(-0.0,1.0,0.0));
#578=DIRECTION('',(1.0,0.0,0.0));
#579=DIRECTION('',(0.0,-1.0,0.0));
#580=CARTESIAN_POINT('',(-1.183276E-014,-45.25,11.75));
#581=DIRECTION('',(0.0,0.0,1.0));
#582=DIRECTION('',(-1.0,0.0,0.0));
#583=DIRECTION('',(0.0,1.0,0.0));
#584=CARTESIAN_POINT('',(-1.183276E-014,-45.25,11.75));
#585=DIRECTION('',(0.0,0.0,-1.0));
#586=DIRECTION('',(0.0,1.0,0.0));
#587=DIRECTION('',(0.0,1.0,0.0));
#588=CARTESIAN_POINT('',(-1.183276E-014,-45.25,-11.75));
#589=DIRECTION('',(0.0,0.0,1.0));
#590=DIRECTION('',(-1.0,0.0,0.0));
#591=DIRECTION('',(0.0,-1.0,0.0));
#592=CARTESIAN_POINT('',(-1.183276E-014,-45.25,-11.75));
#593=DIRECTION('',(0.0,0.0,-1.0));
#594=DIRECTION('',(0.0,1.0,0.0));
#595=DIRECTION('',(0.0,0.0,1.0));
#596=CARTESIAN_POINT('',(4.754534E-014,149.75,0.0));
#597=DIRECTION('',(0.0,-1.0,0.0));
#598=DIRECTION('',(-1.0,0.0,0.0));
ENDSEC;
END-ISO-10303-21;
