ISO-10303-21;
HEADER;
FILE_DESCRIPTION(('STEP AP214'),'1');
FILE_NAME('cctmp_5B03C935-338E-4FF7-A646-FF3C6DF05471_2020_1_16_6_40_58_660..stp','2020-01-16T05:40:58',('Bosch Rexroth AG'),('CADClick - www.CADClick.com'),'Spatial InterOp 3D',' ','unknown authorization - (Healing Option Enabled)');
FILE_SCHEMA(('AUTOMOTIVE_DESIGN'));
ENDSEC;
DATA;
#1=MECHANICAL_DESIGN_GEOMETRIC_PRESENTATION_REPRESENTATION(' ',(#10,#11,#12,#13,#14,#15,#16,#17,#18,#19,#20,#21,#22,#23,#24,#25),#6);
#2=PRODUCT_DEFINITION_CONTEXT('',#26,'design');
#3=APPLICATION_PROTOCOL_DEFINITION('INTERNATIONAL STANDARD','automotive_design',1994,#26);
#4=PRODUCT_CATEGORY_RELATIONSHIP('NONE','NONE',#27,#28);
#5=SHAPE_DEFINITION_REPRESENTATION(#29,#30);
#6= (GEOMETRIC_REPRESENTATION_CONTEXT(3)GLOBAL_UNCERTAINTY_ASSIGNED_CONTEXT((#33))GLOBAL_UNIT_ASSIGNED_CONTEXT((#35,#36,#37))REPRESENTATION_CONTEXT('NONE','WORKSPACE'));
#10=STYLED_ITEM('',(#39),#40);
#11=STYLED_ITEM('',(#41),#42);
#12=STYLED_ITEM('',(#43),#44);
#13=STYLED_ITEM('',(#45),#46);
#14=STYLED_ITEM('',(#47),#48);
#15=STYLED_ITEM('',(#49),#50);
#16=STYLED_ITEM('',(#51),#52);
#17=STYLED_ITEM('',(#53),#54);
#18=STYLED_ITEM('',(#55),#56);
#19=STYLED_ITEM('',(#57),#58);
#20=STYLED_ITEM('',(#59),#60);
#21=STYLED_ITEM('',(#61),#62);
#22=STYLED_ITEM('',(#63),#64);
#23=STYLED_ITEM('',(#65),#66);
#24=STYLED_ITEM('',(#67),#68);
#25=STYLED_ITEM('',(#69),#70);
#26=APPLICATION_CONTEXT(' ');
#27=PRODUCT_CATEGORY('part','NONE');
#28=PRODUCT_RELATED_PRODUCT_CATEGORY('detail',' ',(#71));
#29=PRODUCT_DEFINITION_SHAPE('NONE','NONE',#72);
#30=ADVANCED_BREP_SHAPE_REPRESENTATION('2020_01_16__06-40-58-660',(#70,#73),#6);
#33=UNCERTAINTY_MEASURE_WITH_UNIT(LENGTH_MEASURE(1.0E-006),#35,'','');
#35= (CONVERSION_BASED_UNIT('MILLIMETRE',#76)LENGTH_UNIT()NAMED_UNIT(#79));
#36= (NAMED_UNIT(#81)PLANE_ANGLE_UNIT()SI_UNIT($,.RADIAN.));
#37= (NAMED_UNIT(#81)SOLID_ANGLE_UNIT()SI_UNIT($,.STERADIAN.));
#39=PRESENTATION_STYLE_ASSIGNMENT((#87));
#40=ADVANCED_FACE('',(#88),#89,.F.);
#41=PRESENTATION_STYLE_ASSIGNMENT((#90));
#42=ADVANCED_FACE('',(#91),#92,.T.);
#43=PRESENTATION_STYLE_ASSIGNMENT((#93));
#44=ADVANCED_FACE('',(#94),#95,.T.);
#45=PRESENTATION_STYLE_ASSIGNMENT((#96));
#46=ADVANCED_FACE('',(#97),#98,.T.);
#47=PRESENTATION_STYLE_ASSIGNMENT((#99));
#48=ADVANCED_FACE('',(#100),#101,.T.);
#49=PRESENTATION_STYLE_ASSIGNMENT((#102));
#50=ADVANCED_FACE('',(#103),#104,.F.);
#51=PRESENTATION_STYLE_ASSIGNMENT((#105));
#52=ADVANCED_FACE('',(#106),#107,.T.);
#53=PRESENTATION_STYLE_ASSIGNMENT((#108));
#54=ADVANCED_FACE('',(#109),#110,.T.);
#55=PRESENTATION_STYLE_ASSIGNMENT((#111));
#56=ADVANCED_FACE('',(#112),#113,.T.);
#57=PRESENTATION_STYLE_ASSIGNMENT((#114));
#58=ADVANCED_FACE('',(#115),#116,.T.);
#59=PRESENTATION_STYLE_ASSIGNMENT((#117));
#60=ADVANCED_FACE('',(#118),#119,.T.);
#61=PRESENTATION_STYLE_ASSIGNMENT((#120));
#62=ADVANCED_FACE('',(#121),#122,.T.);
#63=PRESENTATION_STYLE_ASSIGNMENT((#123));
#64=ADVANCED_FACE('',(#124),#125,.T.);
#65=PRESENTATION_STYLE_ASSIGNMENT((#126));
#66=ADVANCED_FACE('',(#127),#128,.F.);
#67=PRESENTATION_STYLE_ASSIGNMENT((#129));
#68=ADVANCED_FACE('',(#130),#131,.F.);
#69=PRESENTATION_STYLE_ASSIGNMENT((#132));
#70=MANIFOLD_SOLID_BREP('2020_01_16__06-40-58-660',#133);
#71=PRODUCT('2020_01_16__06-40-58-660','','PART--DESC',(#134));
#72=PRODUCT_DEFINITION('','NONE',#135,#2);
#73=AXIS2_PLACEMENT_3D('',#136,#137,#138);
#76=LENGTH_MEASURE_WITH_UNIT(LENGTH_MEASURE(1.0),#139);
#79=DIMENSIONAL_EXPONENTS(1.0,0.0,0.0,0.0,0.0,0.0,0.0);
#81=DIMENSIONAL_EXPONENTS(0.0,0.0,0.0,0.0,0.0,0.0,0.0);
#87=SURFACE_STYLE_USAGE(.BOTH.,#140);
#88=FACE_OUTER_BOUND('',#141,.T.);
#89=CYLINDRICAL_SURFACE('',#142,6.0);
#90=SURFACE_STYLE_USAGE(.BOTH.,#143);
#91=FACE_OUTER_BOUND('',#144,.T.);
#92=CONICAL_SURFACE('',#145,18.3629716065144,0.7853981625);
#93=SURFACE_STYLE_USAGE(.BOTH.,#146);
#94=FACE_OUTER_BOUND('',#147,.T.);
#95=CYLINDRICAL_SURFACE('',#148,9.00000000000001);
#96=SURFACE_STYLE_USAGE(.BOTH.,#149);
#97=FACE_OUTER_BOUND('',#150,.T.);
#98=CYLINDRICAL_SURFACE('',#151,9.00000000000001);
#99=SURFACE_STYLE_USAGE(.BOTH.,#152);
#100=FACE_OUTER_BOUND('',#153,.T.);
#101=CONICAL_SURFACE('',#154,18.3629716065144,0.7853981625);
#102=SURFACE_STYLE_USAGE(.BOTH.,#155);
#103=FACE_OUTER_BOUND('',#156,.T.);
#104=PLANE('',#157);
#105=SURFACE_STYLE_USAGE(.BOTH.,#158);
#106=FACE_OUTER_BOUND('',#159,.T.);
#107=PLANE('',#160);
#108=SURFACE_STYLE_USAGE(.BOTH.,#161);
#109=FACE_OUTER_BOUND('',#162,.T.);
#110=PLANE('',#163);
#111=SURFACE_STYLE_USAGE(.BOTH.,#164);
#112=FACE_OUTER_BOUND('',#165,.T.);
#113=PLANE('',#166);
#114=SURFACE_STYLE_USAGE(.BOTH.,#167);
#115=FACE_OUTER_BOUND('',#168,.T.);
#116=CYLINDRICAL_SURFACE('',#169,4.0);
#117=SURFACE_STYLE_USAGE(.BOTH.,#170);
#118=FACE_OUTER_BOUND('',#171,.T.);
#119=PLANE('',#172);
#120=SURFACE_STYLE_USAGE(.BOTH.,#173);
#121=FACE_OUTER_BOUND('',#174,.T.);
#122=PLANE('',#175);
#123=SURFACE_STYLE_USAGE(.BOTH.,#176);
#124=FACE_OUTER_BOUND('',#177,.T.);
#125=CYLINDRICAL_SURFACE('',#178,4.0);
#126=SURFACE_STYLE_USAGE(.BOTH.,#179);
#127=FACE_OUTER_BOUND('',#180,.T.);
#128=CYLINDRICAL_SURFACE('',#181,6.0);
#129=SURFACE_STYLE_USAGE(.BOTH.,#182);
#130=FACE_OUTER_BOUND('',#183,.T.);
#131=PLANE('',#184);
#132=SURFACE_STYLE_USAGE(.BOTH.,#185);
#133=CLOSED_SHELL('',(#40,#42,#44,#46,#48,#50,#52,#54,#56,#58,#60,#62,#64,#66,#68));
#134=PRODUCT_CONTEXT('',#26,'mechanical');
#135=PRODUCT_DEFINITION_FORMATION_WITH_SPECIFIED_SOURCE(' ','NONE',#71,.NOT_KNOWN.);
#136=CARTESIAN_POINT('',(0.0,0.0,0.0));
#137=DIRECTION('',(0.0,0.0,1.0));
#138=DIRECTION('',(1.0,0.0,0.0));
#139= (NAMED_UNIT(#79)LENGTH_UNIT()SI_UNIT(.MILLI.,.METRE.));
#140=SURFACE_SIDE_STYLE('',(#187));
#141=EDGE_LOOP('',(#188,#189,#190,#191));
#142=AXIS2_PLACEMENT_3D('',#192,#193,#194);
#143=SURFACE_SIDE_STYLE('',(#195));
#144=EDGE_LOOP('',(#196,#197,#198,#199,#200,#201,#202));
#145=AXIS2_PLACEMENT_3D('',#203,#204,#205);
#146=SURFACE_SIDE_STYLE('',(#206));
#147=EDGE_LOOP('',(#207,#208,#209,#210,#211));
#148=AXIS2_PLACEMENT_3D('',#212,#213,#214);
#149=SURFACE_SIDE_STYLE('',(#215));
#150=EDGE_LOOP('',(#216,#217,#218,#219,#220));
#151=AXIS2_PLACEMENT_3D('',#221,#222,#223);
#152=SURFACE_SIDE_STYLE('',(#224));
#153=EDGE_LOOP('',(#225,#226,#227,#228,#229,#230,#231));
#154=AXIS2_PLACEMENT_3D('',#232,#233,#234);
#155=SURFACE_SIDE_STYLE('',(#235));
#156=EDGE_LOOP('',(#236,#237,#238,#239,#240));
#157=AXIS2_PLACEMENT_3D('',#241,#242,#243);
#158=SURFACE_SIDE_STYLE('',(#244));
#159=EDGE_LOOP('',(#245,#246,#247,#248,#249,#250,#251,#252,#253));
#160=AXIS2_PLACEMENT_3D('',#254,#255,#256);
#161=SURFACE_SIDE_STYLE('',(#257));
#162=EDGE_LOOP('',(#258,#259,#260,#261,#262));
#163=AXIS2_PLACEMENT_3D('',#263,#264,#265);
#164=SURFACE_SIDE_STYLE('',(#266));
#165=EDGE_LOOP('',(#267,#268,#269,#270,#271,#272,#273,#274,#275));
#166=AXIS2_PLACEMENT_3D('',#276,#277,#278);
#167=SURFACE_SIDE_STYLE('',(#279));
#168=EDGE_LOOP('',(#280,#281,#282,#283));
#169=AXIS2_PLACEMENT_3D('',#284,#285,#286);
#170=SURFACE_SIDE_STYLE('',(#287));
#171=EDGE_LOOP('',(#288,#289,#290,#291));
#172=AXIS2_PLACEMENT_3D('',#292,#293,#294);
#173=SURFACE_SIDE_STYLE('',(#295));
#174=EDGE_LOOP('',(#296,#297,#298,#299));
#175=AXIS2_PLACEMENT_3D('',#300,#301,#302);
#176=SURFACE_SIDE_STYLE('',(#303));
#177=EDGE_LOOP('',(#304,#305,#306,#307));
#178=AXIS2_PLACEMENT_3D('',#308,#309,#310);
#179=SURFACE_SIDE_STYLE('',(#311));
#180=EDGE_LOOP('',(#312,#313,#314,#315));
#181=AXIS2_PLACEMENT_3D('',#316,#317,#318);
#182=SURFACE_SIDE_STYLE('',(#319));
#183=EDGE_LOOP('',(#320,#321));
#184=AXIS2_PLACEMENT_3D('',#322,#323,#324);
#185=SURFACE_SIDE_STYLE('',(#325));
#187=SURFACE_STYLE_FILL_AREA(#326);
#188=ORIENTED_EDGE('',*,*,#327,.F.);
#189=ORIENTED_EDGE('',*,*,#328,.F.);
#190=ORIENTED_EDGE('',*,*,#329,.F.);
#191=ORIENTED_EDGE('',*,*,#330,.F.);
#192=CARTESIAN_POINT('',(12.5,-34.0,0.0));
#193=DIRECTION('',(-1.0,0.0,0.0));
#194=DIRECTION('',(0.0,1.0,0.0));
#195=SURFACE_STYLE_FILL_AREA(#331);
#196=ORIENTED_EDGE('',*,*,#332,.F.);
#197=ORIENTED_EDGE('',*,*,#333,.T.);
#198=ORIENTED_EDGE('',*,*,#334,.T.);
#199=ORIENTED_EDGE('',*,*,#335,.F.);
#200=ORIENTED_EDGE('',*,*,#336,.T.);
#201=ORIENTED_EDGE('',*,*,#337,.T.);
#202=ORIENTED_EDGE('',*,*,#338,.T.);
#203=CARTESIAN_POINT('',(-4.182941E-015,-16.3629716065144,0.0));
#204=DIRECTION('',(-1.224606E-016,-1.0,0.0));
#205=DIRECTION('',(0.0,0.0,1.0));
#206=SURFACE_STYLE_FILL_AREA(#339);
#207=ORIENTED_EDGE('',*,*,#340,.F.);
#208=ORIENTED_EDGE('',*,*,#341,.T.);
#209=ORIENTED_EDGE('',*,*,#342,.F.);
#210=ORIENTED_EDGE('',*,*,#343,.F.);
#211=ORIENTED_EDGE('',*,*,#334,.F.);
#212=CARTESIAN_POINT('',(4.458792E-014,100.1,0.0));
#213=DIRECTION('',(0.0,1.0,0.0));
#214=DIRECTION('',(-1.0,0.0,0.0));
#215=SURFACE_STYLE_FILL_AREA(#344);
#216=ORIENTED_EDGE('',*,*,#340,.T.);
#217=ORIENTED_EDGE('',*,*,#333,.F.);
#218=ORIENTED_EDGE('',*,*,#345,.F.);
#219=ORIENTED_EDGE('',*,*,#342,.T.);
#220=ORIENTED_EDGE('',*,*,#346,.T.);
#221=CARTESIAN_POINT('',(4.458792E-014,100.1,0.0));
#222=DIRECTION('',(0.0,1.0,0.0));
#223=DIRECTION('',(-1.0,0.0,0.0));
#224=SURFACE_STYLE_FILL_AREA(#347);
#225=ORIENTED_EDGE('',*,*,#332,.T.);
#226=ORIENTED_EDGE('',*,*,#348,.T.);
#227=ORIENTED_EDGE('',*,*,#349,.T.);
#228=ORIENTED_EDGE('',*,*,#350,.T.);
#229=ORIENTED_EDGE('',*,*,#335,.T.);
#230=ORIENTED_EDGE('',*,*,#343,.T.);
#231=ORIENTED_EDGE('',*,*,#345,.T.);
#232=CARTESIAN_POINT('',(-4.182941E-015,-16.3629716065144,0.0));
#233=DIRECTION('',(-1.224606E-016,-1.0,0.0));
#234=DIRECTION('',(0.0,0.0,1.0));
#235=SURFACE_STYLE_FILL_AREA(#351);
#236=ORIENTED_EDGE('',*,*,#350,.F.);
#237=ORIENTED_EDGE('',*,*,#352,.F.);
#238=ORIENTED_EDGE('',*,*,#353,.T.);
#239=ORIENTED_EDGE('',*,*,#354,.F.);
#240=ORIENTED_EDGE('',*,*,#336,.F.);
#241=CARTESIAN_POINT('',(-5.510729E-016,-4.5,-13.2));
#242=DIRECTION('',(0.0,0.0,1.0));
#243=DIRECTION('',(1.0,-0.0,0.0));
#244=SURFACE_STYLE_FILL_AREA(#355);
#245=ORIENTED_EDGE('',*,*,#354,.T.);
#246=ORIENTED_EDGE('',*,*,#356,.T.);
#247=ORIENTED_EDGE('',*,*,#357,.T.);
#248=ORIENTED_EDGE('',*,*,#358,.T.);
#249=ORIENTED_EDGE('',*,*,#330,.T.);
#250=ORIENTED_EDGE('',*,*,#359,.T.);
#251=ORIENTED_EDGE('',*,*,#360,.T.);
#252=ORIENTED_EDGE('',*,*,#361,.F.);
#253=ORIENTED_EDGE('',*,*,#337,.F.);
#254=CARTESIAN_POINT('',(-12.5,-7.0,-13.2));
#255=DIRECTION('',(-1.0,0.0,0.0));
#256=DIRECTION('',(0.0,0.0,1.0));
#257=SURFACE_STYLE_FILL_AREA(#362);
#258=ORIENTED_EDGE('',*,*,#361,.T.);
#259=ORIENTED_EDGE('',*,*,#363,.T.);
#260=ORIENTED_EDGE('',*,*,#364,.T.);
#261=ORIENTED_EDGE('',*,*,#348,.F.);
#262=ORIENTED_EDGE('',*,*,#338,.F.);
#263=CARTESIAN_POINT('',(-5.510729E-016,-4.5,13.2));
#264=DIRECTION('',(0.0,0.0,1.0));
#265=DIRECTION('',(1.0,-0.0,0.0));
#266=SURFACE_STYLE_FILL_AREA(#365);
#267=ORIENTED_EDGE('',*,*,#364,.F.);
#268=ORIENTED_EDGE('',*,*,#366,.T.);
#269=ORIENTED_EDGE('',*,*,#367,.F.);
#270=ORIENTED_EDGE('',*,*,#328,.T.);
#271=ORIENTED_EDGE('',*,*,#368,.T.);
#272=ORIENTED_EDGE('',*,*,#369,.F.);
#273=ORIENTED_EDGE('',*,*,#370,.T.);
#274=ORIENTED_EDGE('',*,*,#352,.T.);
#275=ORIENTED_EDGE('',*,*,#349,.F.);
#276=CARTESIAN_POINT('',(12.5,-37.0,-13.2));
#277=DIRECTION('',(1.0,0.0,0.0));
#278=DIRECTION('',(0.0,1.0,-0.0));
#279=SURFACE_STYLE_FILL_AREA(#371);
#280=ORIENTED_EDGE('',*,*,#353,.F.);
#281=ORIENTED_EDGE('',*,*,#370,.F.);
#282=ORIENTED_EDGE('',*,*,#372,.T.);
#283=ORIENTED_EDGE('',*,*,#356,.F.);
#284=CARTESIAN_POINT('',(12.661184,-33.0,-9.2));
#285=DIRECTION('',(1.0,-1.224606E-016,0.0));
#286=DIRECTION('',(0.0,0.0,-1.0));
#287=SURFACE_STYLE_FILL_AREA(#373);
#288=ORIENTED_EDGE('',*,*,#359,.F.);
#289=ORIENTED_EDGE('',*,*,#329,.T.);
#290=ORIENTED_EDGE('',*,*,#367,.T.);
#291=ORIENTED_EDGE('',*,*,#374,.F.);
#292=CARTESIAN_POINT('',(-12.5,-37.0,-13.2));
#293=DIRECTION('',(0.0,-1.0,0.0));
#294=DIRECTION('',(0.0,0.0,-1.0));
#295=SURFACE_STYLE_FILL_AREA(#375);
#296=ORIENTED_EDGE('',*,*,#369,.T.);
#297=ORIENTED_EDGE('',*,*,#376,.F.);
#298=ORIENTED_EDGE('',*,*,#357,.F.);
#299=ORIENTED_EDGE('',*,*,#372,.F.);
#300=CARTESIAN_POINT('',(-12.5,-37.0,-13.2));
#301=DIRECTION('',(0.0,-1.0,0.0));
#302=DIRECTION('',(0.0,0.0,-1.0));
#303=SURFACE_STYLE_FILL_AREA(#377);
#304=ORIENTED_EDGE('',*,*,#363,.F.);
#305=ORIENTED_EDGE('',*,*,#360,.F.);
#306=ORIENTED_EDGE('',*,*,#374,.T.);
#307=ORIENTED_EDGE('',*,*,#366,.F.);
#308=CARTESIAN_POINT('',(-12.647852,-33.0,9.2));
#309=DIRECTION('',(-1.0,1.224606E-016,0.0));
#310=DIRECTION('',(0.0,0.0,1.0));
#311=SURFACE_STYLE_FILL_AREA(#378);
#312=ORIENTED_EDGE('',*,*,#327,.T.);
#313=ORIENTED_EDGE('',*,*,#358,.F.);
#314=ORIENTED_EDGE('',*,*,#376,.T.);
#315=ORIENTED_EDGE('',*,*,#368,.F.);
#316=CARTESIAN_POINT('',(12.5,-34.0,0.0));
#317=DIRECTION('',(-1.0,0.0,0.0));
#318=DIRECTION('',(0.0,1.0,0.0));
#319=SURFACE_STYLE_FILL_AREA(#379);
#320=ORIENTED_EDGE('',*,*,#346,.F.);
#321=ORIENTED_EDGE('',*,*,#341,.F.);
#322=CARTESIAN_POINT('',(4.240199E-014,95.0,0.0));
#323=DIRECTION('',(0.0,-1.0,0.0));
#324=DIRECTION('',(0.0,0.0,-1.0));
#325=SURFACE_STYLE_FILL_AREA(#380);
#326=FILL_AREA_STYLE('',(#381));
#327=EDGE_CURVE('',#382,#383,#384,.T.);
#328=EDGE_CURVE('',#385,#382,#386,.T.);
#329=EDGE_CURVE('',#387,#385,#388,.T.);
#330=EDGE_CURVE('',#383,#387,#389,.T.);
#331=FILL_AREA_STYLE('',(#390));
#332=EDGE_CURVE('',#391,#392,#393,.T.);
#333=EDGE_CURVE('',#391,#394,#395,.T.);
#334=EDGE_CURVE('',#394,#396,#397,.T.);
#335=EDGE_CURVE('',#398,#396,#399,.T.);
#336=EDGE_CURVE('',#398,#400,#401,.T.);
#337=EDGE_CURVE('',#400,#402,#403,.T.);
#338=EDGE_CURVE('',#402,#392,#404,.T.);
#339=FILL_AREA_STYLE('',(#405));
#340=EDGE_CURVE('',#406,#394,#407,.T.);
#341=EDGE_CURVE('',#406,#408,#409,.T.);
#342=EDGE_CURVE('',#410,#408,#411,.T.);
#343=EDGE_CURVE('',#396,#410,#412,.T.);
#344=FILL_AREA_STYLE('',(#413));
#345=EDGE_CURVE('',#410,#391,#414,.T.);
#346=EDGE_CURVE('',#408,#406,#415,.T.);
#347=FILL_AREA_STYLE('',(#416));
#348=EDGE_CURVE('',#392,#417,#418,.T.);
#349=EDGE_CURVE('',#417,#419,#420,.T.);
#350=EDGE_CURVE('',#419,#398,#421,.T.);
#351=FILL_AREA_STYLE('',(#422));
#352=EDGE_CURVE('',#423,#419,#424,.T.);
#353=EDGE_CURVE('',#423,#425,#426,.T.);
#354=EDGE_CURVE('',#400,#425,#427,.T.);
#355=FILL_AREA_STYLE('',(#428));
#356=EDGE_CURVE('',#425,#429,#430,.T.);
#357=EDGE_CURVE('',#429,#431,#432,.T.);
#358=EDGE_CURVE('',#431,#383,#433,.T.);
#359=EDGE_CURVE('',#387,#434,#435,.T.);
#360=EDGE_CURVE('',#434,#436,#437,.T.);
#361=EDGE_CURVE('',#402,#436,#438,.T.);
#362=FILL_AREA_STYLE('',(#439));
#363=EDGE_CURVE('',#436,#440,#441,.T.);
#364=EDGE_CURVE('',#440,#417,#442,.T.);
#365=FILL_AREA_STYLE('',(#443));
#366=EDGE_CURVE('',#440,#444,#445,.T.);
#367=EDGE_CURVE('',#385,#444,#446,.T.);
#368=EDGE_CURVE('',#382,#447,#448,.T.);
#369=EDGE_CURVE('',#449,#447,#450,.T.);
#370=EDGE_CURVE('',#449,#423,#451,.T.);
#371=FILL_AREA_STYLE('',(#452));
#372=EDGE_CURVE('',#449,#429,#453,.T.);
#373=FILL_AREA_STYLE('',(#454));
#374=EDGE_CURVE('',#434,#444,#455,.T.);
#375=FILL_AREA_STYLE('',(#456));
#376=EDGE_CURVE('',#431,#447,#457,.T.);
#377=FILL_AREA_STYLE('',(#458));
#378=FILL_AREA_STYLE('',(#459));
#379=FILL_AREA_STYLE('',(#460));
#380=FILL_AREA_STYLE('',(#461));
#381=FILL_AREA_STYLE_COLOUR('',#462);
#382=VERTEX_POINT('',#463);
#383=VERTEX_POINT('',#464);
#384=LINE('',#465,#466);
#385=VERTEX_POINT('',#467);
#386=CIRCLE('',#468,6.0);
#387=VERTEX_POINT('',#469);
#388=LINE('',#470,#471);
#389=CIRCLE('',#472,6.0);
#390=FILL_AREA_STYLE_COLOUR('',#473);
#391=VERTEX_POINT('',#474);
#392=VERTEX_POINT('',#475);
#393=LINE('',#476,#477);
#394=VERTEX_POINT('',#478);
#395=CIRCLE('',#479,9.00000000000001);
#396=VERTEX_POINT('',#480);
#397=CIRCLE('',#481,9.00000000000001);
#398=VERTEX_POINT('',#482);
#399=LINE('',#483,#484);
#400=VERTEX_POINT('',#485);
#401=(B_SPLINE_CURVE(2,(#487,#488,#489),.UNSPECIFIED.,.F.,.F.)B_SPLINE_CURVE_WITH_KNOTS((3,3),(4.0516663238722,6.42257267361553),.UNSPECIFIED.)RATIONAL_B_SPLINE_CURVE((1.86363636363636,1.86363636363636,1.56790841123457))BOUNDED_CURVE()REPRESENTATION_ITEM('')GEOMETRIC_REPRESENTATION_ITEM()CURVE());
#402=VERTEX_POINT('',#496);
#403=(B_SPLINE_CURVE(2,(#498,#499,#500),.UNSPECIFIED.,.F.,.F.)B_SPLINE_CURVE_WITH_KNOTS((3,3),(1.90203586863396,7.47879565101291),.UNSPECIFIED.)RATIONAL_B_SPLINE_CURVE((1.71124687912051,2.48875312087949,1.71124687912051))BOUNDED_CURVE()REPRESENTATION_ITEM('')GEOMETRIC_REPRESENTATION_ITEM()CURVE());
#404=(B_SPLINE_CURVE(2,(#508,#509,#510),.UNSPECIFIED.,.F.,.F.)B_SPLINE_CURVE_WITH_KNOTS((3,3),(1.68075997412886,4.0516663238722),.UNSPECIFIED.)RATIONAL_B_SPLINE_CURVE((1.56790841123457,1.86363636363636,1.86363636363636))BOUNDED_CURVE()REPRESENTATION_ITEM('')GEOMETRIC_REPRESENTATION_ITEM()CURVE());
#405=FILL_AREA_STYLE_COLOUR('',#517);
#406=VERTEX_POINT('',#518);
#407=LINE('',#519,#520);
#408=VERTEX_POINT('',#521);
#409=CIRCLE('',#522,9.00000000000001);
#410=VERTEX_POINT('',#523);
#411=LINE('',#524,#525);
#412=CIRCLE('',#526,9.00000000000001);
#413=FILL_AREA_STYLE_COLOUR('',#527);
#414=CIRCLE('',#528,9.00000000000001);
#415=CIRCLE('',#529,9.00000000000001);
#416=FILL_AREA_STYLE_COLOUR('',#530);
#417=VERTEX_POINT('',#531);
#418=(B_SPLINE_CURVE(2,(#533,#534,#535),.UNSPECIFIED.,.F.,.F.)B_SPLINE_CURVE_WITH_KNOTS((3,3),(4.0516663238722,6.42257267361553),.UNSPECIFIED.)RATIONAL_B_SPLINE_CURVE((1.86363636363636,1.86363636363636,1.56790841123457))BOUNDED_CURVE()REPRESENTATION_ITEM('')GEOMETRIC_REPRESENTATION_ITEM()CURVE());
#419=VERTEX_POINT('',#542);
#420=(B_SPLINE_CURVE(2,(#544,#545,#546),.UNSPECIFIED.,.F.,.F.)B_SPLINE_CURVE_WITH_KNOTS((3,3),(1.90203586863396,7.47879565101292),.UNSPECIFIED.)RATIONAL_B_SPLINE_CURVE((1.71124687912051,2.48875312087949,1.71124687912051))BOUNDED_CURVE()REPRESENTATION_ITEM('')GEOMETRIC_REPRESENTATION_ITEM()CURVE());
#421=(B_SPLINE_CURVE(2,(#554,#555,#556),.UNSPECIFIED.,.F.,.F.)B_SPLINE_CURVE_WITH_KNOTS((3,3),(1.68075997412886,4.0516663238722),.UNSPECIFIED.)RATIONAL_B_SPLINE_CURVE((1.56790841123457,1.86363636363636,1.86363636363636))BOUNDED_CURVE()REPRESENTATION_ITEM('')GEOMETRIC_REPRESENTATION_ITEM()CURVE());
#422=FILL_AREA_STYLE_COLOUR('',#563);
#423=VERTEX_POINT('',#564);
#424=LINE('',#565,#566);
#425=VERTEX_POINT('',#567);
#426=LINE('',#568,#569);
#427=LINE('',#570,#571);
#428=FILL_AREA_STYLE_COLOUR('',#572);
#429=VERTEX_POINT('',#573);
#430=CIRCLE('',#574,4.0);
#431=VERTEX_POINT('',#575);
#432=LINE('',#576,#577);
#433=CIRCLE('',#578,6.0);
#434=VERTEX_POINT('',#579);
#435=LINE('',#580,#581);
#436=VERTEX_POINT('',#582);
#437=CIRCLE('',#583,4.0);
#438=LINE('',#584,#585);
#439=FILL_AREA_STYLE_COLOUR('',#586);
#440=VERTEX_POINT('',#587);
#441=LINE('',#588,#589);
#442=LINE('',#590,#591);
#443=FILL_AREA_STYLE_COLOUR('',#592);
#444=VERTEX_POINT('',#593);
#445=CIRCLE('',#594,4.0);
#446=LINE('',#595,#596);
#447=VERTEX_POINT('',#597);
#448=CIRCLE('',#598,6.0);
#449=VERTEX_POINT('',#599);
#450=LINE('',#600,#601);
#451=CIRCLE('',#602,4.0);
#452=FILL_AREA_STYLE_COLOUR('',#603);
#453=LINE('',#604,#605);
#454=FILL_AREA_STYLE_COLOUR('',#606);
#455=LINE('',#607,#608);
#456=FILL_AREA_STYLE_COLOUR('',#609);
#457=LINE('',#610,#611);
#458=FILL_AREA_STYLE_COLOUR('',#612);
#459=FILL_AREA_STYLE_COLOUR('',#613);
#460=FILL_AREA_STYLE_COLOUR('',#614);
#461=FILL_AREA_STYLE_COLOUR('',#615);
#462=COLOUR_RGB('',0.752941191196442,0.752941191196442,0.752941191196442);
#463=CARTESIAN_POINT('',(12.5,-28.0,7.34788079488413E-016));
#464=CARTESIAN_POINT('',(-12.5,-28.0,7.34788079488413E-016));
#465=CARTESIAN_POINT('',(12.5,-28.0,7.34788079488413E-016));
#466=VECTOR('',#616,1.0);
#467=CARTESIAN_POINT('',(12.5,-37.0,5.19615242270663));
#468=AXIS2_PLACEMENT_3D('',#617,#618,#619);
#469=CARTESIAN_POINT('',(-12.5,-37.0,5.19615242270663));
#470=CARTESIAN_POINT('',(-12.5,-37.0,5.19615242270663));
#471=VECTOR('',#620,25.0);
#472=AXIS2_PLACEMENT_3D('',#621,#622,#623);
#473=COLOUR_RGB('',0.752941191196442,0.752941191196442,0.752941191196442);
#474=CARTESIAN_POINT('',(-1.867524E-015,-7.00000000000002,9.00000000000001));
#475=CARTESIAN_POINT('',(-4.928647E-016,-11.2,13.2));
#476=CARTESIAN_POINT('',(-6.43175644007516E-015,-16.3629716065144,18.3629716065144));
#477=VECTOR('',#624,1.0);
#478=CARTESIAN_POINT('',(-9.00000000000001,-7.00000000000001,-1.10218211923262E-015));
#479=AXIS2_PLACEMENT_3D('',#625,#626,#627);
#480=CARTESIAN_POINT('',(-1.93416376005066E-015,-7.00000000000002,-9.00000000000001));
#481=AXIS2_PLACEMENT_3D('',#628,#629,#630);
#482=CARTESIAN_POINT('',(-4.218769E-015,-11.2,-13.2));
#483=CARTESIAN_POINT('',(-1.93412555992484E-015,-16.3629716065144,-18.3629716065144));
#484=VECTOR('',#631,1.0);
#485=CARTESIAN_POINT('',(-12.5,-16.1793839279553,-13.2));
#487=CARTESIAN_POINT('',(-2.19228429447934E-014,-11.2,-13.2));
#488=CARTESIAN_POINT('',(-5.25822942792081,-11.2,-13.2));
#489=CARTESIAN_POINT('',(-12.4999999999999,-16.1793839279553,-13.2));
#496=CARTESIAN_POINT('',(-12.5,-16.1793839279553,13.2));
#498=CARTESIAN_POINT('',(-12.5,-16.1793839279241,-13.199999999957));
#499=CARTESIAN_POINT('',(-12.5,-6.59490071937999,0.0));
#500=CARTESIAN_POINT('',(-12.5,-16.1793839279241,13.199999999957));
#508=CARTESIAN_POINT('',(-12.4999999999999,-16.1793839279553,13.2));
#509=CARTESIAN_POINT('',(-5.2582294279208,-11.2,13.2));
#510=CARTESIAN_POINT('',(9.53167084556233E-016,-11.2,13.2));
#517=COLOUR_RGB('',0.752941191196442,0.752941191196442,0.752941191196442);
#518=CARTESIAN_POINT('',(-8.99999999999996,95.0,-1.10218211923262E-015));
#519=CARTESIAN_POINT('',(-8.99999999999996,44.0,-1.10218211923262E-015));
#520=VECTOR('',#632,1.0);
#521=CARTESIAN_POINT('',(9.00000000000005,95.0,-1.102146E-015));
#522=AXIS2_PLACEMENT_3D('',#633,#634,#635);
#523=CARTESIAN_POINT('',(9.0,-7.00000000000001,1.10218211923261E-015));
#524=CARTESIAN_POINT('',(9.00000000000005,44.0,1.10218211923262E-015));
#525=VECTOR('',#636,1.0);
#526=AXIS2_PLACEMENT_3D('',#637,#638,#639);
#527=COLOUR_RGB('',0.752941191196442,0.752941191196442,0.752941191196442);
#528=AXIS2_PLACEMENT_3D('',#640,#641,#642);
#529=AXIS2_PLACEMENT_3D('',#643,#644,#645);
#530=COLOUR_RGB('',0.752941191196442,0.752941191196442,0.752941191196442);
#531=CARTESIAN_POINT('',(12.5,-16.1793839279553,13.2));
#533=CARTESIAN_POINT('',(9.53167084556233E-016,-11.2,13.2));
#534=CARTESIAN_POINT('',(5.2582294279208,-11.2,13.2));
#535=CARTESIAN_POINT('',(12.4999999999999,-16.1793839279553,13.2));
#542=CARTESIAN_POINT('',(12.5,-16.1793839279553,-13.2));
#544=CARTESIAN_POINT('',(12.5,-16.1793839279241,13.199999999957));
#545=CARTESIAN_POINT('',(12.5,-6.59490071937999,-3.5527136788005E-015));
#546=CARTESIAN_POINT('',(12.5,-16.1793839279241,-13.199999999957));
#554=CARTESIAN_POINT('',(12.4999999999999,-16.1793839279553,-13.2));
#555=CARTESIAN_POINT('',(5.25822942792078,-11.2,-13.2));
#556=CARTESIAN_POINT('',(-2.19228429447934E-014,-11.2,-13.2));
#563=COLOUR_RGB('',0.752941191196442,0.752941191196442,0.752941191196442);
#564=CARTESIAN_POINT('',(12.5,-33.0,-13.2));
#565=CARTESIAN_POINT('',(12.5,-33.0,-13.2));
#566=VECTOR('',#646,16.8206160720447);
#567=CARTESIAN_POINT('',(-12.5,-33.0,-13.2));
#568=CARTESIAN_POINT('',(12.5,-33.0,-13.2));
#569=VECTOR('',#647,25.0);
#570=CARTESIAN_POINT('',(-12.5,-16.1793839279553,-13.2));
#571=VECTOR('',#648,16.8206160720447);
#572=COLOUR_RGB('',0.752941191196442,0.752941191196442,0.752941191196442);
#573=CARTESIAN_POINT('',(-12.5,-37.0,-9.2));
#574=AXIS2_PLACEMENT_3D('',#649,#650,#651);
#575=CARTESIAN_POINT('',(-12.5,-37.0,-5.19615242270663));
#576=CARTESIAN_POINT('',(-12.5,-37.0,-9.2));
#577=VECTOR('',#652,4.00384757729337);
#578=AXIS2_PLACEMENT_3D('',#653,#654,#655);
#579=CARTESIAN_POINT('',(-12.5,-37.0,9.2));
#580=CARTESIAN_POINT('',(-12.5,-37.0,5.19615242270663));
#581=VECTOR('',#656,4.00384757729337);
#582=CARTESIAN_POINT('',(-12.5,-33.0,13.2));
#583=AXIS2_PLACEMENT_3D('',#657,#658,#659);
#584=CARTESIAN_POINT('',(-12.5,-16.1793839279553,13.2));
#585=VECTOR('',#660,16.8206160720447);
#586=COLOUR_RGB('',0.752941191196442,0.752941191196442,0.752941191196442);
#587=CARTESIAN_POINT('',(12.5,-33.0,13.2));
#588=CARTESIAN_POINT('',(-12.5,-33.0,13.2));
#589=VECTOR('',#661,25.0);
#590=CARTESIAN_POINT('',(12.5,-33.0,13.2));
#591=VECTOR('',#662,16.8206160720447);
#592=COLOUR_RGB('',0.752941191196442,0.752941191196442,0.752941191196442);
#593=CARTESIAN_POINT('',(12.5,-37.0,9.2));
#594=AXIS2_PLACEMENT_3D('',#663,#664,#665);
#595=CARTESIAN_POINT('',(12.5,-37.0,5.19615242270663));
#596=VECTOR('',#666,4.00384757729337);
#597=CARTESIAN_POINT('',(12.5,-37.0,-5.19615242270663));
#598=AXIS2_PLACEMENT_3D('',#667,#668,#669);
#599=CARTESIAN_POINT('',(12.5,-37.0,-9.2));
#600=CARTESIAN_POINT('',(12.5,-37.0,-9.2));
#601=VECTOR('',#670,4.00384757729337);
#602=AXIS2_PLACEMENT_3D('',#671,#672,#673);
#603=COLOUR_RGB('',0.752941191196442,0.752941191196442,0.752941191196442);
#604=CARTESIAN_POINT('',(12.5,-37.0,-9.2));
#605=VECTOR('',#674,25.0);
#606=COLOUR_RGB('',0.752941191196442,0.752941191196442,0.752941191196442);
#607=CARTESIAN_POINT('',(-12.5,-37.0,9.2));
#608=VECTOR('',#675,25.0);
#609=COLOUR_RGB('',0.752941191196442,0.752941191196442,0.752941191196442);
#610=CARTESIAN_POINT('',(-12.5,-37.0,-5.19615242270663));
#611=VECTOR('',#676,25.0);
#612=COLOUR_RGB('',0.752941191196442,0.752941191196442,0.752941191196442);
#613=COLOUR_RGB('',0.752941191196442,0.752941191196442,0.752941191196442);
#614=COLOUR_RGB('',0.752941191196442,0.752941191196442,0.752941191196442);
#615=COLOUR_RGB('',0.752941012382507,0.752941012382507,0.752941012382507);
#616=DIRECTION('',(-1.0,-0.0,-0.0));
#617=CARTESIAN_POINT('',(12.5,-34.0,0.0));
#618=DIRECTION('',(-1.0,3.06151611266343E-017,-5.30270119513878E-017));
#619=DIRECTION('',(-6.123032E-017,-0.5,0.866025403784439));
#620=DIRECTION('',(1.0,0.0,0.0));
#621=CARTESIAN_POINT('',(-12.5,-34.0,0.0));
#622=DIRECTION('',(1.0,-3.06151611266343E-017,-5.30270119513878E-017));
#623=DIRECTION('',(-6.123032E-017,-0.5,-0.866025403784439));
#624=DIRECTION('',(-1.7318832631172E-016,-0.707106781821139,0.707106780551956));
#625=CARTESIAN_POINT('',(-1.316452E-015,-7.00000000000002,0.0));
#626=DIRECTION('',(0.0,-1.0,0.0));
#627=DIRECTION('',(0.0,0.0,-1.0));
#628=CARTESIAN_POINT('',(-1.316452E-015,-7.00000000000002,0.0));
#629=DIRECTION('',(0.0,-1.0,0.0));
#630=DIRECTION('',(0.0,0.0,-1.0));
#631=DIRECTION('',(-2.88477994843598E-021,0.707106781821139,0.707106780551956));
#632=DIRECTION('',(-0.0,-1.0,-0.0));
#633=CARTESIAN_POINT('',(4.240199E-014,95.0,0.0));
#634=DIRECTION('',(0.0,-1.0,0.0));
#635=DIRECTION('',(-1.0,0.0,0.0));
#636=DIRECTION('',(0.0,1.0,0.0));
#637=CARTESIAN_POINT('',(-1.316452E-015,-7.00000000000002,0.0));
#638=DIRECTION('',(0.0,-1.0,0.0));
#639=DIRECTION('',(0.0,0.0,-1.0));
#640=CARTESIAN_POINT('',(-1.316452E-015,-7.00000000000002,0.0));
#641=DIRECTION('',(0.0,-1.0,0.0));
#642=DIRECTION('',(0.0,0.0,-1.0));
#643=CARTESIAN_POINT('',(4.240199E-014,95.0,0.0));
#644=DIRECTION('',(0.0,-1.0,0.0));
#645=DIRECTION('',(-1.0,0.0,0.0));
#646=DIRECTION('',(0.0,1.0,0.0));
#647=DIRECTION('',(-1.0,0.0,0.0));
#648=DIRECTION('',(0.0,-1.0,0.0));
#649=CARTESIAN_POINT('',(-12.5,-33.0,-9.2));
#650=DIRECTION('',(-1.0,0.0,0.0));
#651=DIRECTION('',(0.0,0.0,-1.0));
#652=DIRECTION('',(0.0,0.0,1.0));
#653=CARTESIAN_POINT('',(-12.5,-34.0,0.0));
#654=DIRECTION('',(1.0,-3.06151611266343E-017,-5.30270119513878E-017));
#655=DIRECTION('',(-6.123032E-017,-0.5,-0.866025403784439));
#656=DIRECTION('',(0.0,0.0,1.0));
#657=CARTESIAN_POINT('',(-12.5,-33.0,9.2));
#658=DIRECTION('',(-1.0,0.0,0.0));
#659=DIRECTION('',(0.0,-1.0,0.0));
#660=DIRECTION('',(0.0,-1.0,0.0));
#661=DIRECTION('',(1.0,0.0,0.0));
#662=DIRECTION('',(0.0,1.0,0.0));
#663=CARTESIAN_POINT('',(12.5,-33.0,9.2));
#664=DIRECTION('',(1.0,0.0,-0.0));
#665=DIRECTION('',(0.0,0.0,1.0));
#666=DIRECTION('',(0.0,0.0,1.0));
#667=CARTESIAN_POINT('',(12.5,-34.0,0.0));
#668=DIRECTION('',(-1.0,3.06151611266343E-017,-5.30270119513878E-017));
#669=DIRECTION('',(-6.123032E-017,-0.5,0.866025403784439));
#670=DIRECTION('',(0.0,0.0,1.0));
#671=CARTESIAN_POINT('',(12.5,-33.0,-9.2));
#672=DIRECTION('',(1.0,0.0,0.0));
#673=DIRECTION('',(0.0,-1.0,0.0));
#674=DIRECTION('',(-1.0,0.0,0.0));
#675=DIRECTION('',(1.0,0.0,0.0));
#676=DIRECTION('',(1.0,0.0,0.0));
ENDSEC;
END-ISO-10303-21;
