ISO-10303-21;
HEADER;
FILE_DESCRIPTION(('STEP AP214'),'1');
FILE_NAME('cctmp_CFCFDE60-67AC-498C-9FD2-5D56BB9E802C_2020_1_15_9_7_39_706..stp','2020-01-15T08:07:39',('Bosch Rexroth AG'),('CADClick - www.CADClick.com'),'Spatial InterOp 3D',' ','unknown authorization - (Healing Option Enabled)');
FILE_SCHEMA(('AUTOMOTIVE_DESIGN'));
ENDSEC;
DATA;
#1=MECHANICAL_DESIGN_GEOMETRIC_PRESENTATION_REPRESENTATION(' ',(#10,#11,#12,#13,#14,#15,#16,#17,#18,#19,#20,#21,#22),#6);
#2=PRODUCT_DEFINITION_CONTEXT('',#23,'design');
#3=APPLICATION_PROTOCOL_DEFINITION('INTERNATIONAL STANDARD','automotive_design',1994,#23);
#4=PRODUCT_CATEGORY_RELATIONSHIP('NONE','NONE',#24,#25);
#5=SHAPE_DEFINITION_REPRESENTATION(#26,#27);
#6= (GEOMETRIC_REPRESENTATION_CONTEXT(3)GLOBAL_UNCERTAINTY_ASSIGNED_CONTEXT((#30))GLOBAL_UNIT_ASSIGNED_CONTEXT((#32,#33,#34))REPRESENTATION_CONTEXT('NONE','WORKSPACE'));
#10=STYLED_ITEM('',(#36),#37);
#11=STYLED_ITEM('',(#38),#39);
#12=STYLED_ITEM('',(#40),#41);
#13=STYLED_ITEM('',(#42),#43);
#14=STYLED_ITEM('',(#44),#45);
#15=STYLED_ITEM('',(#46),#47);
#16=STYLED_ITEM('',(#48),#49);
#17=STYLED_ITEM('',(#50),#51);
#18=STYLED_ITEM('',(#52),#53);
#19=STYLED_ITEM('',(#54),#55);
#20=STYLED_ITEM('',(#56),#57);
#21=STYLED_ITEM('',(#58),#59);
#22=STYLED_ITEM('',(#60),#61);
#23=APPLICATION_CONTEXT(' ');
#24=PRODUCT_CATEGORY('part','NONE');
#25=PRODUCT_RELATED_PRODUCT_CATEGORY('detail',' ',(#62));
#26=PRODUCT_DEFINITION_SHAPE('NONE','NONE',#63);
#27=ADVANCED_BREP_SHAPE_REPRESENTATION('2020_01_15__09-07-39-706',(#61,#64),#6);
#30=UNCERTAINTY_MEASURE_WITH_UNIT(LENGTH_MEASURE(1.0E-006),#32,'','');
#32= (CONVERSION_BASED_UNIT('MILLIMETRE',#67)LENGTH_UNIT()NAMED_UNIT(#70));
#33= (NAMED_UNIT(#72)PLANE_ANGLE_UNIT()SI_UNIT($,.RADIAN.));
#34= (NAMED_UNIT(#72)SOLID_ANGLE_UNIT()SI_UNIT($,.STERADIAN.));
#36=PRESENTATION_STYLE_ASSIGNMENT((#78));
#37=ADVANCED_FACE('',(#79),#80,.F.);
#38=PRESENTATION_STYLE_ASSIGNMENT((#81));
#39=ADVANCED_FACE('',(#82),#83,.F.);
#40=PRESENTATION_STYLE_ASSIGNMENT((#84));
#41=ADVANCED_FACE('',(#85),#86,.F.);
#42=PRESENTATION_STYLE_ASSIGNMENT((#87));
#43=ADVANCED_FACE('',(#88),#89,.T.);
#44=PRESENTATION_STYLE_ASSIGNMENT((#90));
#45=ADVANCED_FACE('',(#91),#92,.T.);
#46=PRESENTATION_STYLE_ASSIGNMENT((#93));
#47=ADVANCED_FACE('',(#94),#95,.F.);
#48=PRESENTATION_STYLE_ASSIGNMENT((#96));
#49=ADVANCED_FACE('',(#97),#98,.F.);
#50=PRESENTATION_STYLE_ASSIGNMENT((#99));
#51=ADVANCED_FACE('',(#100),#101,.F.);
#52=PRESENTATION_STYLE_ASSIGNMENT((#102));
#53=ADVANCED_FACE('',(#103,#104),#105,.T.);
#54=PRESENTATION_STYLE_ASSIGNMENT((#106));
#55=ADVANCED_FACE('',(#107),#108,.T.);
#56=PRESENTATION_STYLE_ASSIGNMENT((#109));
#57=ADVANCED_FACE('',(#110),#111,.T.);
#58=PRESENTATION_STYLE_ASSIGNMENT((#112));
#59=ADVANCED_FACE('',(#113),#114,.T.);
#60=PRESENTATION_STYLE_ASSIGNMENT((#115));
#61=MANIFOLD_SOLID_BREP('2020_01_15__09-07-39-706',#116);
#62=PRODUCT('2020_01_15__09-07-39-706','','PART--DESC',(#117));
#63=PRODUCT_DEFINITION('','NONE',#118,#2);
#64=AXIS2_PLACEMENT_3D('',#119,#120,#121);
#67=LENGTH_MEASURE_WITH_UNIT(LENGTH_MEASURE(1.0),#122);
#70=DIMENSIONAL_EXPONENTS(1.0,0.0,0.0,0.0,0.0,0.0,0.0);
#72=DIMENSIONAL_EXPONENTS(0.0,0.0,0.0,0.0,0.0,0.0,0.0);
#78=SURFACE_STYLE_USAGE(.BOTH.,#123);
#79=FACE_OUTER_BOUND('',#124,.T.);
#80=SPHERICAL_SURFACE('',#125,8.0);
#81=SURFACE_STYLE_USAGE(.BOTH.,#126);
#82=FACE_OUTER_BOUND('',#127,.T.);
#83=SPHERICAL_SURFACE('',#128,8.0);
#84=SURFACE_STYLE_USAGE(.BOTH.,#129);
#85=FACE_OUTER_BOUND('',#130,.T.);
#86=SPHERICAL_SURFACE('',#131,8.0);
#87=SURFACE_STYLE_USAGE(.BOTH.,#132);
#88=FACE_OUTER_BOUND('',#133,.T.);
#89=CYLINDRICAL_SURFACE('',#134,39.5);
#90=SURFACE_STYLE_USAGE(.BOTH.,#135);
#91=FACE_OUTER_BOUND('',#136,.T.);
#92=CONICAL_SURFACE('',#137,39.5000000000002,1.12207298278511);
#93=SURFACE_STYLE_USAGE(.BOTH.,#138);
#94=FACE_OUTER_BOUND('',#139,.T.);
#95=CYLINDRICAL_SURFACE('',#140,7.99999999999997);
#96=SURFACE_STYLE_USAGE(.BOTH.,#141);
#97=FACE_OUTER_BOUND('',#142,.T.);
#98=SPHERICAL_SURFACE('',#143,8.0);
#99=SURFACE_STYLE_USAGE(.BOTH.,#144);
#100=FACE_OUTER_BOUND('',#145,.T.);
#101=CYLINDRICAL_SURFACE('',#146,7.99999999999997);
#102=SURFACE_STYLE_USAGE(.BOTH.,#147);
#103=FACE_BOUND('',#148,.T.);
#104=FACE_OUTER_BOUND('',#149,.T.);
#105=PLANE('',#150);
#106=SURFACE_STYLE_USAGE(.BOTH.,#151);
#107=FACE_OUTER_BOUND('',#152,.T.);
#108=CONICAL_SURFACE('',#153,39.5000000000002,1.12207298278511);
#109=SURFACE_STYLE_USAGE(.BOTH.,#154);
#110=FACE_OUTER_BOUND('',#155,.T.);
#111=CYLINDRICAL_SURFACE('',#156,39.5);
#112=SURFACE_STYLE_USAGE(.BOTH.,#157);
#113=FACE_OUTER_BOUND('',#158,.T.);
#114=PLANE('',#159);
#115=SURFACE_STYLE_USAGE(.BOTH.,#160);
#116=CLOSED_SHELL('',(#37,#39,#41,#43,#45,#47,#49,#51,#53,#55,#57,#59));
#117=PRODUCT_CONTEXT('',#23,'mechanical');
#118=PRODUCT_DEFINITION_FORMATION_WITH_SPECIFIED_SOURCE(' ','NONE',#62,.NOT_KNOWN.);
#119=CARTESIAN_POINT('',(0.0,0.0,0.0));
#120=DIRECTION('',(0.0,0.0,1.0));
#121=DIRECTION('',(1.0,0.0,0.0));
#122= (NAMED_UNIT(#70)LENGTH_UNIT()SI_UNIT(.MILLI.,.METRE.));
#123=SURFACE_SIDE_STYLE('',(#162));
#124=EDGE_LOOP('',(#163,#164,#165,#166,#167,#168));
#125=AXIS2_PLACEMENT_3D('',#169,#170,#171);
#126=SURFACE_SIDE_STYLE('',(#172));
#127=EDGE_LOOP('',(#173,#174,#175,#176,#177));
#128=AXIS2_PLACEMENT_3D('',#178,#179,#180);
#129=SURFACE_SIDE_STYLE('',(#181));
#130=EDGE_LOOP('',(#182,#183,#184,#185));
#131=AXIS2_PLACEMENT_3D('',#186,#187,#188);
#132=SURFACE_SIDE_STYLE('',(#189));
#133=EDGE_LOOP('',(#190,#191,#192,#193));
#134=AXIS2_PLACEMENT_3D('',#194,#195,#196);
#135=SURFACE_SIDE_STYLE('',(#197));
#136=EDGE_LOOP('',(#198,#199,#200,#201));
#137=AXIS2_PLACEMENT_3D('',#202,#203,#204);
#138=SURFACE_SIDE_STYLE('',(#205));
#139=EDGE_LOOP('',(#206,#207,#208,#209,#210,#211,#212));
#140=AXIS2_PLACEMENT_3D('',#213,#214,#215);
#141=SURFACE_SIDE_STYLE('',(#216));
#142=EDGE_LOOP('',(#217,#218,#219));
#143=AXIS2_PLACEMENT_3D('',#220,#221,#222);
#144=SURFACE_SIDE_STYLE('',(#223));
#145=EDGE_LOOP('',(#224,#225,#226,#227,#228));
#146=AXIS2_PLACEMENT_3D('',#229,#230,#231);
#147=SURFACE_SIDE_STYLE('',(#232));
#148=EDGE_LOOP('',(#233,#234));
#149=EDGE_LOOP('',(#235,#236));
#150=AXIS2_PLACEMENT_3D('',#237,#238,#239);
#151=SURFACE_SIDE_STYLE('',(#240));
#152=EDGE_LOOP('',(#241,#242,#243,#244));
#153=AXIS2_PLACEMENT_3D('',#245,#246,#247);
#154=SURFACE_SIDE_STYLE('',(#248));
#155=EDGE_LOOP('',(#249,#250,#251,#252));
#156=AXIS2_PLACEMENT_3D('',#253,#254,#255);
#157=SURFACE_SIDE_STYLE('',(#256));
#158=EDGE_LOOP('',(#257,#258));
#159=AXIS2_PLACEMENT_3D('',#259,#260,#261);
#160=SURFACE_SIDE_STYLE('',(#262));
#162=SURFACE_STYLE_FILL_AREA(#263);
#163=ORIENTED_EDGE('',*,*,#264,.F.);
#164=ORIENTED_EDGE('',*,*,#265,.F.);
#165=ORIENTED_EDGE('',*,*,#266,.F.);
#166=ORIENTED_EDGE('',*,*,#267,.T.);
#167=ORIENTED_EDGE('',*,*,#268,.F.);
#168=ORIENTED_EDGE('',*,*,#269,.F.);
#169=CARTESIAN_POINT('',(2.33146835171283E-015,-5.32907051820075E-015,14.5000000000001));
#170=DIRECTION('',(-0.51233658820663,3.85797367982085E-017,0.858784734601629));
#171=DIRECTION('',(0.617482260874552,-0.694990753073854,0.368379574144778));
#172=SURFACE_STYLE_FILL_AREA(#270);
#173=ORIENTED_EDGE('',*,*,#271,.F.);
#174=ORIENTED_EDGE('',*,*,#272,.F.);
#175=ORIENTED_EDGE('',*,*,#273,.F.);
#176=ORIENTED_EDGE('',*,*,#267,.F.);
#177=ORIENTED_EDGE('',*,*,#266,.T.);
#178=CARTESIAN_POINT('',(-9.99200722162641E-016,-2.66453525910038E-015,14.5000000000001));
#179=DIRECTION('',(-0.971914114349281,7.6120280907739E-018,-0.23533583307404));
#180=DIRECTION('',(0.0645413734859298,-0.96165779910306,-0.266549598635616));
#181=SURFACE_STYLE_FILL_AREA(#274);
#182=ORIENTED_EDGE('',*,*,#271,.T.);
#183=ORIENTED_EDGE('',*,*,#265,.T.);
#184=ORIENTED_EDGE('',*,*,#275,.T.);
#185=ORIENTED_EDGE('',*,*,#276,.F.);
#186=CARTESIAN_POINT('',(-9.99200722162641E-016,-2.66453525910038E-015,14.5000000000001));
#187=DIRECTION('',(-0.971914114349281,7.6120280907739E-018,-0.23533583307404));
#188=DIRECTION('',(0.0645413734859298,-0.96165779910306,-0.266549598635616));
#189=SURFACE_STYLE_FILL_AREA(#277);
#190=ORIENTED_EDGE('',*,*,#278,.T.);
#191=ORIENTED_EDGE('',*,*,#279,.T.);
#192=ORIENTED_EDGE('',*,*,#280,.F.);
#193=ORIENTED_EDGE('',*,*,#281,.F.);
#194=CARTESIAN_POINT('',(0.0,0.0,2.50000000000989));
#195=DIRECTION('',(0.0,0.0,-1.0));
#196=DIRECTION('',(-1.0,0.0,0.0));
#197=SURFACE_STYLE_FILL_AREA(#282);
#198=ORIENTED_EDGE('',*,*,#283,.T.);
#199=ORIENTED_EDGE('',*,*,#284,.T.);
#200=ORIENTED_EDGE('',*,*,#278,.F.);
#201=ORIENTED_EDGE('',*,*,#285,.F.);
#202=CARTESIAN_POINT('',(0.0,0.0,5.00000000001975));
#203=DIRECTION('',(-0.0,0.0,-1.0));
#204=DIRECTION('',(-1.0,0.0,0.0));
#205=SURFACE_STYLE_FILL_AREA(#286);
#206=ORIENTED_EDGE('',*,*,#287,.F.);
#207=ORIENTED_EDGE('',*,*,#288,.T.);
#208=ORIENTED_EDGE('',*,*,#272,.T.);
#209=ORIENTED_EDGE('',*,*,#276,.T.);
#210=ORIENTED_EDGE('',*,*,#289,.T.);
#211=ORIENTED_EDGE('',*,*,#269,.T.);
#212=ORIENTED_EDGE('',*,*,#290,.F.);
#213=CARTESIAN_POINT('',(0.0,-4.8985871965894E-016,18.0000000000001));
#214=DIRECTION('',(0.0,0.0,-1.0));
#215=DIRECTION('',(-1.0,0.0,0.0));
#216=SURFACE_STYLE_FILL_AREA(#291);
#217=ORIENTED_EDGE('',*,*,#264,.T.);
#218=ORIENTED_EDGE('',*,*,#289,.F.);
#219=ORIENTED_EDGE('',*,*,#275,.F.);
#220=CARTESIAN_POINT('',(2.33146835171283E-015,-5.32907051820075E-015,14.5000000000001));
#221=DIRECTION('',(-0.51233658820663,3.85797367982085E-017,0.858784734601629));
#222=DIRECTION('',(0.617482260874552,-0.694990753073854,0.368379574144778));
#223=SURFACE_STYLE_FILL_AREA(#292);
#224=ORIENTED_EDGE('',*,*,#288,.F.);
#225=ORIENTED_EDGE('',*,*,#293,.F.);
#226=ORIENTED_EDGE('',*,*,#290,.T.);
#227=ORIENTED_EDGE('',*,*,#268,.T.);
#228=ORIENTED_EDGE('',*,*,#273,.T.);
#229=CARTESIAN_POINT('',(0.0,-4.8985871965894E-016,18.0000000000001));
#230=DIRECTION('',(0.0,0.0,-1.0));
#231=DIRECTION('',(-1.0,0.0,0.0));
#232=SURFACE_STYLE_FILL_AREA(#294);
#233=ORIENTED_EDGE('',*,*,#293,.T.);
#234=ORIENTED_EDGE('',*,*,#287,.T.);
#235=ORIENTED_EDGE('',*,*,#283,.F.);
#236=ORIENTED_EDGE('',*,*,#295,.F.);
#237=CARTESIAN_POINT('',(-10.2499999999882,0.0,18.0000000000001));
#238=DIRECTION('',(0.0,0.0,1.0));
#239=DIRECTION('',(1.0,0.0,0.0));
#240=SURFACE_STYLE_FILL_AREA(#296);
#241=ORIENTED_EDGE('',*,*,#284,.F.);
#242=ORIENTED_EDGE('',*,*,#295,.T.);
#243=ORIENTED_EDGE('',*,*,#285,.T.);
#244=ORIENTED_EDGE('',*,*,#297,.F.);
#245=CARTESIAN_POINT('',(0.0,0.0,5.00000000001975));
#246=DIRECTION('',(-0.0,0.0,-1.0));
#247=DIRECTION('',(-1.0,0.0,0.0));
#248=SURFACE_STYLE_FILL_AREA(#298);
#249=ORIENTED_EDGE('',*,*,#279,.F.);
#250=ORIENTED_EDGE('',*,*,#297,.T.);
#251=ORIENTED_EDGE('',*,*,#281,.T.);
#252=ORIENTED_EDGE('',*,*,#299,.F.);
#253=CARTESIAN_POINT('',(0.0,0.0,2.50000000000989));
#254=DIRECTION('',(0.0,0.0,-1.0));
#255=DIRECTION('',(-1.0,0.0,0.0));
#256=SURFACE_STYLE_FILL_AREA(#300);
#257=ORIENTED_EDGE('',*,*,#280,.T.);
#258=ORIENTED_EDGE('',*,*,#299,.T.);
#259=CARTESIAN_POINT('',(-19.75,0.0,2.8421709430404E-014));
#260=DIRECTION('',(0.0,0.0,-1.0));
#261=DIRECTION('',(-1.0,0.0,0.0));
#262=SURFACE_STYLE_FILL_AREA(#301);
#263=FILL_AREA_STYLE('',(#302));
#264=EDGE_CURVE('',#303,#304,#305,.T.);
#265=EDGE_CURVE('',#306,#303,#307,.T.);
#266=EDGE_CURVE('',#308,#306,#309,.T.);
#267=EDGE_CURVE('',#308,#310,#311,.T.);
#268=EDGE_CURVE('',#312,#310,#313,.T.);
#269=EDGE_CURVE('',#304,#312,#314,.T.);
#270=FILL_AREA_STYLE('',(#315));
#271=EDGE_CURVE('',#316,#306,#317,.T.);
#272=EDGE_CURVE('',#318,#316,#319,.T.);
#273=EDGE_CURVE('',#310,#318,#320,.T.);
#274=FILL_AREA_STYLE('',(#321));
#275=EDGE_CURVE('',#303,#322,#323,.T.);
#276=EDGE_CURVE('',#316,#322,#324,.T.);
#277=FILL_AREA_STYLE('',(#325));
#278=EDGE_CURVE('',#326,#327,#328,.T.);
#279=EDGE_CURVE('',#327,#329,#330,.T.);
#280=EDGE_CURVE('',#331,#329,#332,.T.);
#281=EDGE_CURVE('',#326,#331,#333,.T.);
#282=FILL_AREA_STYLE('',(#334));
#283=EDGE_CURVE('',#335,#336,#337,.T.);
#284=EDGE_CURVE('',#336,#327,#338,.T.);
#285=EDGE_CURVE('',#335,#326,#339,.T.);
#286=FILL_AREA_STYLE('',(#340));
#287=EDGE_CURVE('',#341,#342,#343,.T.);
#288=EDGE_CURVE('',#341,#318,#344,.T.);
#289=EDGE_CURVE('',#322,#304,#345,.T.);
#290=EDGE_CURVE('',#342,#312,#346,.T.);
#291=FILL_AREA_STYLE('',(#347));
#292=FILL_AREA_STYLE('',(#348));
#293=EDGE_CURVE('',#342,#341,#349,.T.);
#294=FILL_AREA_STYLE('',(#350));
#295=EDGE_CURVE('',#336,#335,#351,.T.);
#296=FILL_AREA_STYLE('',(#352));
#297=EDGE_CURVE('',#327,#326,#353,.T.);
#298=FILL_AREA_STYLE('',(#354));
#299=EDGE_CURVE('',#329,#331,#355,.T.);
#300=FILL_AREA_STYLE('',(#356));
#301=FILL_AREA_STYLE('',(#357));
#302=FILL_AREA_STYLE_COLOUR('',#358);
#303=VERTEX_POINT('',#359);
#304=VERTEX_POINT('',#360);
#305=CIRCLE('',#361,8.0);
#306=VERTEX_POINT('',#362);
#307=CIRCLE('',#363,8.0);
#308=VERTEX_POINT('',#364);
#309=CIRCLE('',#365,8.0);
#310=VERTEX_POINT('',#366);
#311=CIRCLE('',#367,8.0);
#312=VERTEX_POINT('',#368);
#313=CIRCLE('',#369,7.99999999999997);
#314=CIRCLE('',#370,7.99999999999997);
#315=FILL_AREA_STYLE_COLOUR('',#371);
#316=VERTEX_POINT('',#372);
#317=CIRCLE('',#373,8.0);
#318=VERTEX_POINT('',#374);
#319=CIRCLE('',#375,7.99999999999997);
#320=CIRCLE('',#376,7.99999999999997);
#321=FILL_AREA_STYLE_COLOUR('',#377);
#322=VERTEX_POINT('',#378);
#323=CIRCLE('',#379,8.0);
#324=CIRCLE('',#380,7.99999999999997);
#325=FILL_AREA_STYLE_COLOUR('',#381);
#326=VERTEX_POINT('',#382);
#327=VERTEX_POINT('',#383);
#328=CIRCLE('',#384,39.5);
#329=VERTEX_POINT('',#385);
#330=LINE('',#386,#387);
#331=VERTEX_POINT('',#388);
#332=CIRCLE('',#389,39.5);
#333=LINE('',#390,#391);
#334=FILL_AREA_STYLE_COLOUR('',#392);
#335=VERTEX_POINT('',#393);
#336=VERTEX_POINT('',#394);
#337=CIRCLE('',#395,12.4999999999763);
#338=LINE('',#396,#397);
#339=LINE('',#398,#399);
#340=FILL_AREA_STYLE_COLOUR('',#400);
#341=VERTEX_POINT('',#401);
#342=VERTEX_POINT('',#402);
#343=CIRCLE('',#403,7.99999999999997);
#344=LINE('',#404,#405);
#345=CIRCLE('',#406,7.99999999999997);
#346=LINE('',#407,#408);
#347=FILL_AREA_STYLE_COLOUR('',#409);
#348=FILL_AREA_STYLE_COLOUR('',#410);
#349=CIRCLE('',#411,7.99999999999997);
#350=FILL_AREA_STYLE_COLOUR('',#412);
#351=CIRCLE('',#413,12.4999999999763);
#352=FILL_AREA_STYLE_COLOUR('',#414);
#353=CIRCLE('',#415,39.5);
#354=FILL_AREA_STYLE_COLOUR('',#416);
#355=CIRCLE('',#417,39.5);
#356=FILL_AREA_STYLE_COLOUR('',#418);
#357=FILL_AREA_STYLE_COLOUR('',#419);
#358=COLOUR_RGB('',0.509803950786591,0.509803950786591,0.588235318660736);
#359=CARTESIAN_POINT('',(6.15625093133679,-5.10887140851542,14.4972793992331));
#360=CARTESIAN_POINT('',(6.15558928135553,-5.10966932386632,14.4999997136125));
#361=AXIS2_PLACEMENT_3D('',#420,#421,#422);
#362=CARTESIAN_POINT('',(6.14910614420412,-5.11745374133256,14.4873180193749));
#363=AXIS2_PLACEMENT_3D('',#423,#424,#425);
#364=CARTESIAN_POINT('',(-1.38198844431254,-6.10651831462758,9.51998574169677));
#365=AXIS2_PLACEMENT_3D('',#426,#427,#428);
#366=CARTESIAN_POINT('',(-6.15819873766868,5.10652409250907,14.4999997136125));
#367=AXIS2_PLACEMENT_3D('',#429,#430,#431);
#368=CARTESIAN_POINT('',(-7.99999999999997,-4.8985871965894E-016,14.4999997136125));
#369=AXIS2_PLACEMENT_3D('',#432,#433,#434);
#370=AXIS2_PLACEMENT_3D('',#435,#436,#437);
#371=COLOUR_RGB('',0.509803950786591,0.509803950786591,0.588235318660736);
#372=CARTESIAN_POINT('',(6.17038420258261,-5.0917932786513,14.4999997136125));
#373=AXIS2_PLACEMENT_3D('',#438,#439,#440);
#374=CARTESIAN_POINT('',(7.99999999999997,4.8985871965894E-016,14.4999997136125));
#375=AXIS2_PLACEMENT_3D('',#441,#442,#443);
#376=AXIS2_PLACEMENT_3D('',#444,#445,#446);
#377=COLOUR_RGB('',0.509803950786591,0.509803950786591,0.588235318660736);
#378=CARTESIAN_POINT('',(6.15819832780425,-5.10652458678393,14.4999997136125));
#379=AXIS2_PLACEMENT_3D('',#447,#448,#449);
#380=AXIS2_PLACEMENT_3D('',#450,#451,#452);
#381=COLOUR_RGB('',0.509803950786591,0.509803950786591,0.588235318660736);
#382=CARTESIAN_POINT('',(-39.5000000000001,0.0,5.00000000001981));
#383=CARTESIAN_POINT('',(39.5000000000001,4.83735485663205E-015,5.00000000001981));
#384=AXIS2_PLACEMENT_3D('',#453,#454,#455);
#385=CARTESIAN_POINT('',(39.5,4.83735485663204E-015,0.0));
#386=CARTESIAN_POINT('',(39.5,4.83735485663204E-015,2.50000000000989));
#387=VECTOR('',#456,1000.0);
#388=CARTESIAN_POINT('',(-39.5,0.0,0.0));
#389=AXIS2_PLACEMENT_3D('',#457,#458,#459);
#390=CARTESIAN_POINT('',(-39.5,0.0,2.50000000000989));
#391=VECTOR('',#460,1000.0);
#392=COLOUR_RGB('',0.509803950786591,0.509803950786591,0.588235318660736);
#393=CARTESIAN_POINT('',(-12.4999999999763,0.0,18.0000000000001));
#394=CARTESIAN_POINT('',(12.4999999999763,3.18408167778167E-015,18.0000000000001));
#395=AXIS2_PLACEMENT_3D('',#461,#462,#463);
#396=CARTESIAN_POINT('',(39.5000000000002,4.83735485663207E-015,5.00000000001975));
#397=VECTOR('',#464,1000.0);
#398=CARTESIAN_POINT('',(-39.5000000000002,0.0,5.00000000001975));
#399=VECTOR('',#465,1000.0);
#400=COLOUR_RGB('',0.509803950786591,0.509803950786591,0.588235318660736);
#401=CARTESIAN_POINT('',(7.99999999999997,4.8985871965894E-016,18.0000000000001));
#402=CARTESIAN_POINT('',(-7.99999999999997,-4.8985871965894E-016,18.0000000000001));
#403=AXIS2_PLACEMENT_3D('',#466,#467,#468);
#404=CARTESIAN_POINT('',(7.99999999999997,4.8985871965894E-016,18.0000000000001));
#405=VECTOR('',#469,1000.0);
#406=AXIS2_PLACEMENT_3D('',#470,#471,#472);
#407=CARTESIAN_POINT('',(-7.99999999999997,-4.8985871965894E-016,18.0000000000001));
#408=VECTOR('',#473,1000.0);
#409=COLOUR_RGB('',0.509803950786591,0.509803950786591,0.588235318660736);
#410=COLOUR_RGB('',0.509803950786591,0.509803950786591,0.588235318660736);
#411=AXIS2_PLACEMENT_3D('',#474,#475,#476);
#412=COLOUR_RGB('',0.509803950786591,0.509803950786591,0.588235318660736);
#413=AXIS2_PLACEMENT_3D('',#477,#478,#479);
#414=COLOUR_RGB('',0.509803950786591,0.509803950786591,0.588235318660736);
#415=AXIS2_PLACEMENT_3D('',#480,#481,#482);
#416=COLOUR_RGB('',0.509803950786591,0.509803950786591,0.588235318660736);
#417=AXIS2_PLACEMENT_3D('',#483,#484,#485);
#418=COLOUR_RGB('',0.509803950786591,0.509803950786591,0.588235318660736);
#419=COLOUR_RGB('',0.509803950786591,0.509803950786591,0.588235318660736);
#420=CARTESIAN_POINT('',(2.32234855542508E-015,-5.3400570840939E-015,14.5000000000001));
#421=DIRECTION('',(-0.596847449429116,-0.719018673708713,-0.356069191265015));
#422=DIRECTION('',(0.0,0.443780257489681,-0.896135638763682));
#423=CARTESIAN_POINT('',(0.0,-1.73472347597681E-015,14.5000000000001));
#424=DIRECTION('',(-0.424908904742339,-0.512417687587498,0.746244287159471));
#425=DIRECTION('',(-0.172748555539068,-0.763314789328447,-0.622501782287917));
#426=CARTESIAN_POINT('',(0.0,-1.73472347597681E-015,14.5000000000001));
#427=DIRECTION('',(-0.424908904742339,-0.512417687587498,0.746244287159471));
#428=DIRECTION('',(-0.172748555539068,-0.763314789328447,-0.622501782287917));
#429=CARTESIAN_POINT('',(0.0,0.0,14.5000000000001));
#430=DIRECTION('',(0.424908904742339,0.512417687587498,-0.746244287159471));
#431=DIRECTION('',(-0.172748555539068,-0.763314789328447,-0.622501782287917));
#432=CARTESIAN_POINT('',(0.0,-4.8985871965894E-016,14.4999997136125));
#433=DIRECTION('',(0.0,0.0,-1.0));
#434=DIRECTION('',(-1.0,0.0,0.0));
#435=CARTESIAN_POINT('',(0.0,-4.8985871965894E-016,14.4999997136125));
#436=DIRECTION('',(0.0,0.0,-1.0));
#437=DIRECTION('',(-1.0,0.0,0.0));
#438=CARTESIAN_POINT('',(-1.0821287461392E-015,-2.76502988627331E-015,14.5000000000001));
#439=DIRECTION('',(0.226312539284067,0.274252214985145,-0.93464878812233));
#440=DIRECTION('',(1.25628695937278E-017,0.959544418504255,0.281557292424351));
#441=CARTESIAN_POINT('',(0.0,-4.8985871965894E-016,14.4999997136125));
#442=DIRECTION('',(0.0,0.0,-1.0));
#443=DIRECTION('',(-1.0,0.0,0.0));
#444=CARTESIAN_POINT('',(0.0,-4.8985871965894E-016,14.4999997136125));
#445=DIRECTION('',(0.0,0.0,-1.0));
#446=DIRECTION('',(-1.0,0.0,0.0));
#447=CARTESIAN_POINT('',(0.0,-1.73472347597681E-015,14.5000000000001));
#448=DIRECTION('',(-0.424908904742339,-0.512417687587498,0.746244287159471));
#449=DIRECTION('',(-0.172748555539068,-0.763314789328447,-0.622501782287917));
#450=CARTESIAN_POINT('',(0.0,-4.8985871965894E-016,14.4999997136125));
#451=DIRECTION('',(0.0,0.0,-1.0));
#452=DIRECTION('',(-1.0,0.0,0.0));
#453=CARTESIAN_POINT('',(0.0,0.0,5.00000000001981));
#454=DIRECTION('',(0.0,0.0,-1.0));
#455=DIRECTION('',(-1.0,0.0,0.0));
#456=DIRECTION('',(0.0,0.0,-1.0));
#457=CARTESIAN_POINT('',(0.0,0.0,0.0));
#458=DIRECTION('',(0.0,0.0,-1.0));
#459=DIRECTION('',(-1.0,0.0,0.0));
#460=DIRECTION('',(0.0,0.0,-1.0));
#461=CARTESIAN_POINT('',(0.0,0.0,18.0000000000001));
#462=DIRECTION('',(0.0,0.0,-1.0));
#463=DIRECTION('',(-1.0,0.0,0.0));
#464=DIRECTION('',(0.901001669759506,1.1034088108974E-016,-0.433815618772056));
#465=DIRECTION('',(-0.901001669759506,0.0,-0.433815618772056));
#466=CARTESIAN_POINT('',(0.0,-4.8985871965894E-016,18.0000000000001));
#467=DIRECTION('',(0.0,0.0,-1.0));
#468=DIRECTION('',(-1.0,0.0,0.0));
#469=DIRECTION('',(0.0,0.0,-1.0));
#470=CARTESIAN_POINT('',(0.0,-4.8985871965894E-016,14.4999997136125));
#471=DIRECTION('',(0.0,0.0,-1.0));
#472=DIRECTION('',(-1.0,0.0,0.0));
#473=DIRECTION('',(0.0,0.0,-1.0));
#474=CARTESIAN_POINT('',(0.0,-4.8985871965894E-016,18.0000000000001));
#475=DIRECTION('',(0.0,0.0,-1.0));
#476=DIRECTION('',(-1.0,0.0,0.0));
#477=CARTESIAN_POINT('',(0.0,0.0,18.0000000000001));
#478=DIRECTION('',(0.0,0.0,-1.0));
#479=DIRECTION('',(-1.0,0.0,0.0));
#480=CARTESIAN_POINT('',(0.0,0.0,5.00000000001981));
#481=DIRECTION('',(0.0,0.0,-1.0));
#482=DIRECTION('',(-1.0,0.0,0.0));
#483=CARTESIAN_POINT('',(0.0,0.0,0.0));
#484=DIRECTION('',(0.0,0.0,-1.0));
#485=DIRECTION('',(-1.0,0.0,0.0));
ENDSEC;
END-ISO-10303-21;
