ISO-10303-21;
HEADER;
FILE_DESCRIPTION(('STEP AP214'),'1');
FILE_NAME('cctmp_936636DA-2553-4284-B670-72066A33B9A1_2020_1_15_9_4_15_952..stp','2020-01-15T08:04:15',('Bosch Rexroth AG'),('CADClick - www.CADClick.com'),'Spatial InterOp 3D',' ','unknown authorization - (Healing Option Enabled)');
FILE_SCHEMA(('AUTOMOTIVE_DESIGN'));
ENDSEC;
DATA;
#1=MECHANICAL_DESIGN_GEOMETRIC_PRESENTATION_REPRESENTATION(' ',(#10,#11,#12,#13,#14,#15,#16,#17,#18,#19,#20,#21,#22),#6);
#2=PRODUCT_DEFINITION_CONTEXT('',#23,'design');
#3=APPLICATION_PROTOCOL_DEFINITION('INTERNATIONAL STANDARD','automotive_design',1994,#23);
#4=PRODUCT_CATEGORY_RELATIONSHIP('NONE','NONE',#24,#25);
#5=SHAPE_DEFINITION_REPRESENTATION(#26,#27);
#6= (GEOMETRIC_REPRESENTATION_CONTEXT(3)GLOBAL_UNCERTAINTY_ASSIGNED_CONTEXT((#30))GLOBAL_UNIT_ASSIGNED_CONTEXT((#32,#33,#34))REPRESENTATION_CONTEXT('NONE','WORKSPACE'));
#10=STYLED_ITEM('',(#36),#37);
#11=STYLED_ITEM('',(#38),#39);
#12=STYLED_ITEM('',(#40),#41);
#13=STYLED_ITEM('',(#42),#43);
#14=STYLED_ITEM('',(#44),#45);
#15=STYLED_ITEM('',(#46),#47);
#16=STYLED_ITEM('',(#48),#49);
#17=STYLED_ITEM('',(#50),#51);
#18=STYLED_ITEM('',(#52),#53);
#19=STYLED_ITEM('',(#54),#55);
#20=STYLED_ITEM('',(#56),#57);
#21=STYLED_ITEM('',(#58),#59);
#22=STYLED_ITEM('',(#60),#61);
#23=APPLICATION_CONTEXT(' ');
#24=PRODUCT_CATEGORY('part','NONE');
#25=PRODUCT_RELATED_PRODUCT_CATEGORY('detail',' ',(#62));
#26=PRODUCT_DEFINITION_SHAPE('NONE','NONE',#63);
#27=ADVANCED_BREP_SHAPE_REPRESENTATION('2020_01_15__09-04-15-952',(#61,#64),#6);
#30=UNCERTAINTY_MEASURE_WITH_UNIT(LENGTH_MEASURE(1.0E-006),#32,'','');
#32= (CONVERSION_BASED_UNIT('MILLIMETRE',#67)LENGTH_UNIT()NAMED_UNIT(#70));
#33= (NAMED_UNIT(#72)PLANE_ANGLE_UNIT()SI_UNIT($,.RADIAN.));
#34= (NAMED_UNIT(#72)SOLID_ANGLE_UNIT()SI_UNIT($,.STERADIAN.));
#36=PRESENTATION_STYLE_ASSIGNMENT((#78));
#37=ADVANCED_FACE('',(#79),#80,.F.);
#38=PRESENTATION_STYLE_ASSIGNMENT((#81));
#39=ADVANCED_FACE('',(#82),#83,.F.);
#40=PRESENTATION_STYLE_ASSIGNMENT((#84));
#41=ADVANCED_FACE('',(#85),#86,.F.);
#42=PRESENTATION_STYLE_ASSIGNMENT((#87));
#43=ADVANCED_FACE('',(#88),#89,.T.);
#44=PRESENTATION_STYLE_ASSIGNMENT((#90));
#45=ADVANCED_FACE('',(#91),#92,.T.);
#46=PRESENTATION_STYLE_ASSIGNMENT((#93));
#47=ADVANCED_FACE('',(#94),#95,.F.);
#48=PRESENTATION_STYLE_ASSIGNMENT((#96));
#49=ADVANCED_FACE('',(#97),#98,.F.);
#50=PRESENTATION_STYLE_ASSIGNMENT((#99));
#51=ADVANCED_FACE('',(#100),#101,.F.);
#52=PRESENTATION_STYLE_ASSIGNMENT((#102));
#53=ADVANCED_FACE('',(#103,#104),#105,.T.);
#54=PRESENTATION_STYLE_ASSIGNMENT((#106));
#55=ADVANCED_FACE('',(#107),#108,.T.);
#56=PRESENTATION_STYLE_ASSIGNMENT((#109));
#57=ADVANCED_FACE('',(#110),#111,.T.);
#58=PRESENTATION_STYLE_ASSIGNMENT((#112));
#59=ADVANCED_FACE('',(#113),#114,.T.);
#60=PRESENTATION_STYLE_ASSIGNMENT((#115));
#61=MANIFOLD_SOLID_BREP('2020_01_15__09-04-15-952',#116);
#62=PRODUCT('2020_01_15__09-04-15-952','','PART--DESC',(#117));
#63=PRODUCT_DEFINITION('','NONE',#118,#2);
#64=AXIS2_PLACEMENT_3D('',#119,#120,#121);
#67=LENGTH_MEASURE_WITH_UNIT(LENGTH_MEASURE(1.0),#122);
#70=DIMENSIONAL_EXPONENTS(1.0,0.0,0.0,0.0,0.0,0.0,0.0);
#72=DIMENSIONAL_EXPONENTS(0.0,0.0,0.0,0.0,0.0,0.0,0.0);
#78=SURFACE_STYLE_USAGE(.BOTH.,#123);
#79=FACE_OUTER_BOUND('',#124,.T.);
#80=SPHERICAL_SURFACE('',#125,8.00000000005002);
#81=SURFACE_STYLE_USAGE(.BOTH.,#126);
#82=FACE_OUTER_BOUND('',#127,.T.);
#83=SPHERICAL_SURFACE('',#128,8.00000000005002);
#84=SURFACE_STYLE_USAGE(.BOTH.,#129);
#85=FACE_OUTER_BOUND('',#130,.T.);
#86=SPHERICAL_SURFACE('',#131,8.00000000005002);
#87=SURFACE_STYLE_USAGE(.BOTH.,#132);
#88=FACE_OUTER_BOUND('',#133,.T.);
#89=CYLINDRICAL_SURFACE('',#134,14.50000000005);
#90=SURFACE_STYLE_USAGE(.BOTH.,#135);
#91=FACE_OUTER_BOUND('',#136,.T.);
#92=CONICAL_SURFACE('',#137,14.50000000005,0.152649328394014);
#93=SURFACE_STYLE_USAGE(.BOTH.,#138);
#94=FACE_OUTER_BOUND('',#139,.T.);
#95=CYLINDRICAL_SURFACE('',#140,8.00000000005002);
#96=SURFACE_STYLE_USAGE(.BOTH.,#141);
#97=FACE_OUTER_BOUND('',#142,.T.);
#98=SPHERICAL_SURFACE('',#143,8.00000000005002);
#99=SURFACE_STYLE_USAGE(.BOTH.,#144);
#100=FACE_OUTER_BOUND('',#145,.T.);
#101=CYLINDRICAL_SURFACE('',#146,8.00000000005002);
#102=SURFACE_STYLE_USAGE(.BOTH.,#147);
#103=FACE_BOUND('',#148,.T.);
#104=FACE_OUTER_BOUND('',#149,.T.);
#105=PLANE('',#150);
#106=SURFACE_STYLE_USAGE(.BOTH.,#151);
#107=FACE_OUTER_BOUND('',#152,.T.);
#108=CONICAL_SURFACE('',#153,14.50000000005,0.152649328394014);
#109=SURFACE_STYLE_USAGE(.BOTH.,#154);
#110=FACE_OUTER_BOUND('',#155,.T.);
#111=CYLINDRICAL_SURFACE('',#156,14.50000000005);
#112=SURFACE_STYLE_USAGE(.BOTH.,#157);
#113=FACE_OUTER_BOUND('',#158,.T.);
#114=PLANE('',#159);
#115=SURFACE_STYLE_USAGE(.BOTH.,#160);
#116=CLOSED_SHELL('',(#37,#39,#41,#43,#45,#47,#49,#51,#53,#55,#57,#59));
#117=PRODUCT_CONTEXT('',#23,'mechanical');
#118=PRODUCT_DEFINITION_FORMATION_WITH_SPECIFIED_SOURCE(' ','NONE',#62,.NOT_KNOWN.);
#119=CARTESIAN_POINT('',(0.0,0.0,0.0));
#120=DIRECTION('',(0.0,0.0,1.0));
#121=DIRECTION('',(1.0,0.0,0.0));
#122= (NAMED_UNIT(#70)LENGTH_UNIT()SI_UNIT(.MILLI.,.METRE.));
#123=SURFACE_SIDE_STYLE('',(#162));
#124=EDGE_LOOP('',(#163,#164,#165,#166,#167,#168));
#125=AXIS2_PLACEMENT_3D('',#169,#170,#171);
#126=SURFACE_SIDE_STYLE('',(#172));
#127=EDGE_LOOP('',(#173,#174,#175,#176,#177));
#128=AXIS2_PLACEMENT_3D('',#178,#179,#180);
#129=SURFACE_SIDE_STYLE('',(#181));
#130=EDGE_LOOP('',(#182,#183,#184,#185));
#131=AXIS2_PLACEMENT_3D('',#186,#187,#188);
#132=SURFACE_SIDE_STYLE('',(#189));
#133=EDGE_LOOP('',(#190,#191,#192,#193));
#134=AXIS2_PLACEMENT_3D('',#194,#195,#196);
#135=SURFACE_SIDE_STYLE('',(#197));
#136=EDGE_LOOP('',(#198,#199,#200,#201));
#137=AXIS2_PLACEMENT_3D('',#202,#203,#204);
#138=SURFACE_SIDE_STYLE('',(#205));
#139=EDGE_LOOP('',(#206,#207,#208,#209,#210,#211,#212));
#140=AXIS2_PLACEMENT_3D('',#213,#214,#215);
#141=SURFACE_SIDE_STYLE('',(#216));
#142=EDGE_LOOP('',(#217,#218,#219));
#143=AXIS2_PLACEMENT_3D('',#220,#221,#222);
#144=SURFACE_SIDE_STYLE('',(#223));
#145=EDGE_LOOP('',(#224,#225,#226,#227,#228));
#146=AXIS2_PLACEMENT_3D('',#229,#230,#231);
#147=SURFACE_SIDE_STYLE('',(#232));
#148=EDGE_LOOP('',(#233,#234));
#149=EDGE_LOOP('',(#235,#236));
#150=AXIS2_PLACEMENT_3D('',#237,#238,#239);
#151=SURFACE_SIDE_STYLE('',(#240));
#152=EDGE_LOOP('',(#241,#242,#243,#244));
#153=AXIS2_PLACEMENT_3D('',#245,#246,#247);
#154=SURFACE_SIDE_STYLE('',(#248));
#155=EDGE_LOOP('',(#249,#250,#251,#252));
#156=AXIS2_PLACEMENT_3D('',#253,#254,#255);
#157=SURFACE_SIDE_STYLE('',(#256));
#158=EDGE_LOOP('',(#257,#258));
#159=AXIS2_PLACEMENT_3D('',#259,#260,#261);
#160=SURFACE_SIDE_STYLE('',(#262));
#162=SURFACE_STYLE_FILL_AREA(#263);
#163=ORIENTED_EDGE('',*,*,#264,.F.);
#164=ORIENTED_EDGE('',*,*,#265,.F.);
#165=ORIENTED_EDGE('',*,*,#266,.F.);
#166=ORIENTED_EDGE('',*,*,#267,.F.);
#167=ORIENTED_EDGE('',*,*,#268,.T.);
#168=ORIENTED_EDGE('',*,*,#269,.T.);
#169=CARTESIAN_POINT('',(-5.0019544062252E-011,0.0,14.5));
#170=DIRECTION('',(-0.713603345171055,0.0,-0.700549973778231));
#171=DIRECTION('',(-0.49320514645511,-0.710174550773859,0.502395054656533));
#172=SURFACE_STYLE_FILL_AREA(#270);
#173=ORIENTED_EDGE('',*,*,#271,.F.);
#174=ORIENTED_EDGE('',*,*,#268,.F.);
#175=ORIENTED_EDGE('',*,*,#267,.T.);
#176=ORIENTED_EDGE('',*,*,#272,.F.);
#177=ORIENTED_EDGE('',*,*,#273,.F.);
#178=CARTESIAN_POINT('',(-5.00186558838323E-011,6.21724893790088E-015,14.5));
#179=DIRECTION('',(-0.95461817896007,0.0,0.297832389774787));
#180=DIRECTION('',(-0.122914143996411,-0.910868962235316,-0.393966809315186));
#181=SURFACE_STYLE_FILL_AREA(#274);
#182=ORIENTED_EDGE('',*,*,#271,.T.);
#183=ORIENTED_EDGE('',*,*,#275,.F.);
#184=ORIENTED_EDGE('',*,*,#276,.F.);
#185=ORIENTED_EDGE('',*,*,#269,.F.);
#186=CARTESIAN_POINT('',(-5.00186558838323E-011,6.21724893790088E-015,14.5));
#187=DIRECTION('',(-0.95461817896007,0.0,0.297832389774787));
#188=DIRECTION('',(-0.122914143996411,-0.910868962235316,-0.393966809315186));
#189=SURFACE_STYLE_FILL_AREA(#277);
#190=ORIENTED_EDGE('',*,*,#278,.T.);
#191=ORIENTED_EDGE('',*,*,#279,.T.);
#192=ORIENTED_EDGE('',*,*,#280,.F.);
#193=ORIENTED_EDGE('',*,*,#281,.F.);
#194=CARTESIAN_POINT('',(0.0,0.0,2.49999999997451));
#195=DIRECTION('',(0.0,0.0,-1.0));
#196=DIRECTION('',(-1.0,0.0,0.0));
#197=SURFACE_STYLE_FILL_AREA(#282);
#198=ORIENTED_EDGE('',*,*,#283,.T.);
#199=ORIENTED_EDGE('',*,*,#284,.T.);
#200=ORIENTED_EDGE('',*,*,#278,.F.);
#201=ORIENTED_EDGE('',*,*,#285,.F.);
#202=CARTESIAN_POINT('',(0.0,0.0,4.99999999994903));
#203=DIRECTION('',(-0.0,0.0,-1.0));
#204=DIRECTION('',(-1.0,0.0,0.0));
#205=SURFACE_STYLE_FILL_AREA(#286);
#206=ORIENTED_EDGE('',*,*,#287,.F.);
#207=ORIENTED_EDGE('',*,*,#288,.T.);
#208=ORIENTED_EDGE('',*,*,#265,.T.);
#209=ORIENTED_EDGE('',*,*,#289,.T.);
#210=ORIENTED_EDGE('',*,*,#275,.T.);
#211=ORIENTED_EDGE('',*,*,#273,.T.);
#212=ORIENTED_EDGE('',*,*,#290,.F.);
#213=CARTESIAN_POINT('',(0.0,-4.89858719662004E-016,18.0));
#214=DIRECTION('',(0.0,0.0,-1.0));
#215=DIRECTION('',(-1.0,0.0,0.0));
#216=SURFACE_STYLE_FILL_AREA(#291);
#217=ORIENTED_EDGE('',*,*,#264,.T.);
#218=ORIENTED_EDGE('',*,*,#276,.T.);
#219=ORIENTED_EDGE('',*,*,#289,.F.);
#220=CARTESIAN_POINT('',(-5.0019544062252E-011,0.0,14.5));
#221=DIRECTION('',(-0.713603345171055,0.0,-0.700549973778231));
#222=DIRECTION('',(-0.49320514645511,-0.710174550773859,0.502395054656533));
#223=SURFACE_STYLE_FILL_AREA(#292);
#224=ORIENTED_EDGE('',*,*,#288,.F.);
#225=ORIENTED_EDGE('',*,*,#293,.F.);
#226=ORIENTED_EDGE('',*,*,#290,.T.);
#227=ORIENTED_EDGE('',*,*,#272,.T.);
#228=ORIENTED_EDGE('',*,*,#266,.T.);
#229=CARTESIAN_POINT('',(0.0,-4.89858719662004E-016,18.0));
#230=DIRECTION('',(0.0,0.0,-1.0));
#231=DIRECTION('',(-1.0,0.0,0.0));
#232=SURFACE_STYLE_FILL_AREA(#294);
#233=ORIENTED_EDGE('',*,*,#293,.T.);
#234=ORIENTED_EDGE('',*,*,#287,.T.);
#235=ORIENTED_EDGE('',*,*,#283,.F.);
#236=ORIENTED_EDGE('',*,*,#295,.F.);
#237=CARTESIAN_POINT('',(-10.2500000000546,0.0,18.0));
#238=DIRECTION('',(0.0,0.0,1.0));
#239=DIRECTION('',(1.0,0.0,0.0));
#240=SURFACE_STYLE_FILL_AREA(#296);
#241=ORIENTED_EDGE('',*,*,#284,.F.);
#242=ORIENTED_EDGE('',*,*,#295,.T.);
#243=ORIENTED_EDGE('',*,*,#285,.T.);
#244=ORIENTED_EDGE('',*,*,#297,.F.);
#245=CARTESIAN_POINT('',(0.0,0.0,4.99999999994903));
#246=DIRECTION('',(-0.0,0.0,-1.0));
#247=DIRECTION('',(-1.0,0.0,0.0));
#248=SURFACE_STYLE_FILL_AREA(#298);
#249=ORIENTED_EDGE('',*,*,#279,.F.);
#250=ORIENTED_EDGE('',*,*,#297,.T.);
#251=ORIENTED_EDGE('',*,*,#281,.T.);
#252=ORIENTED_EDGE('',*,*,#299,.F.);
#253=CARTESIAN_POINT('',(0.0,0.0,2.49999999997451));
#254=DIRECTION('',(0.0,0.0,-1.0));
#255=DIRECTION('',(-1.0,0.0,0.0));
#256=SURFACE_STYLE_FILL_AREA(#300);
#257=ORIENTED_EDGE('',*,*,#280,.T.);
#258=ORIENTED_EDGE('',*,*,#299,.T.);
#259=CARTESIAN_POINT('',(-7.25000000002524,0.0,7.105427357601E-014));
#260=DIRECTION('',(0.0,0.0,-1.0));
#261=DIRECTION('',(-1.0,0.0,0.0));
#262=SURFACE_STYLE_FILL_AREA(#301);
#263=FILL_AREA_STYLE('',(#302));
#264=EDGE_CURVE('',#303,#304,#305,.T.);
#265=EDGE_CURVE('',#306,#303,#307,.T.);
#266=EDGE_CURVE('',#308,#306,#309,.T.);
#267=EDGE_CURVE('',#310,#308,#311,.T.);
#268=EDGE_CURVE('',#310,#312,#313,.T.);
#269=EDGE_CURVE('',#312,#304,#314,.T.);
#270=FILL_AREA_STYLE('',(#315));
#271=EDGE_CURVE('',#312,#316,#317,.T.);
#272=EDGE_CURVE('',#318,#308,#319,.T.);
#273=EDGE_CURVE('',#316,#318,#320,.T.);
#274=FILL_AREA_STYLE('',(#321));
#275=EDGE_CURVE('',#322,#316,#323,.T.);
#276=EDGE_CURVE('',#304,#322,#324,.T.);
#277=FILL_AREA_STYLE('',(#325));
#278=EDGE_CURVE('',#326,#327,#328,.T.);
#279=EDGE_CURVE('',#327,#329,#330,.T.);
#280=EDGE_CURVE('',#331,#329,#332,.T.);
#281=EDGE_CURVE('',#326,#331,#333,.T.);
#282=FILL_AREA_STYLE('',(#334));
#283=EDGE_CURVE('',#335,#336,#337,.T.);
#284=EDGE_CURVE('',#336,#327,#338,.T.);
#285=EDGE_CURVE('',#335,#326,#339,.T.);
#286=FILL_AREA_STYLE('',(#340));
#287=EDGE_CURVE('',#341,#342,#343,.T.);
#288=EDGE_CURVE('',#341,#306,#344,.T.);
#289=EDGE_CURVE('',#303,#322,#345,.T.);
#290=EDGE_CURVE('',#342,#318,#346,.T.);
#291=FILL_AREA_STYLE('',(#347));
#292=FILL_AREA_STYLE('',(#348));
#293=EDGE_CURVE('',#342,#341,#349,.T.);
#294=FILL_AREA_STYLE('',(#350));
#295=EDGE_CURVE('',#336,#335,#351,.T.);
#296=FILL_AREA_STYLE('',(#352));
#297=EDGE_CURVE('',#327,#326,#353,.T.);
#298=FILL_AREA_STYLE('',(#354));
#299=EDGE_CURVE('',#329,#331,#355,.T.);
#300=FILL_AREA_STYLE('',(#356));
#301=FILL_AREA_STYLE('',(#357));
#302=FILL_AREA_STYLE_COLOUR('',#358);
#303=VERTEX_POINT('',#359);
#304=VERTEX_POINT('',#360);
#305=CIRCLE('',#361,8.00000000005002);
#306=VERTEX_POINT('',#362);
#307=CIRCLE('',#363,8.00000000005002);
#308=VERTEX_POINT('',#364);
#309=CIRCLE('',#365,8.00000000005002);
#310=VERTEX_POINT('',#366);
#311=CIRCLE('',#367,8.00000000005002);
#312=VERTEX_POINT('',#368);
#313=CIRCLE('',#369,8.00000000005002);
#314=CIRCLE('',#370,8.00000000005002);
#315=FILL_AREA_STYLE_COLOUR('',#371);
#316=VERTEX_POINT('',#372);
#317=CIRCLE('',#373,8.00000000005002);
#318=VERTEX_POINT('',#374);
#319=CIRCLE('',#375,8.00000000005002);
#320=CIRCLE('',#376,8.00000000005002);
#321=FILL_AREA_STYLE_COLOUR('',#377);
#322=VERTEX_POINT('',#378);
#323=CIRCLE('',#379,8.00000000005002);
#324=CIRCLE('',#380,8.00000000005002);
#325=FILL_AREA_STYLE_COLOUR('',#381);
#326=VERTEX_POINT('',#382);
#327=VERTEX_POINT('',#383);
#328=CIRCLE('',#384,14.50000000005);
#329=VERTEX_POINT('',#385);
#330=LINE('',#386,#387);
#331=VERTEX_POINT('',#388);
#332=CIRCLE('',#389,14.50000000005);
#333=LINE('',#390,#391);
#334=FILL_AREA_STYLE_COLOUR('',#392);
#335=VERTEX_POINT('',#393);
#336=VERTEX_POINT('',#394);
#337=CIRCLE('',#395,12.5000000000589);
#338=LINE('',#396,#397);
#339=LINE('',#398,#399);
#340=FILL_AREA_STYLE_COLOUR('',#400);
#341=VERTEX_POINT('',#401);
#342=VERTEX_POINT('',#402);
#343=CIRCLE('',#403,8.00000000005002);
#344=LINE('',#404,#405);
#345=CIRCLE('',#406,8.00000000005002);
#346=LINE('',#407,#408);
#347=FILL_AREA_STYLE_COLOUR('',#409);
#348=FILL_AREA_STYLE_COLOUR('',#410);
#349=CIRCLE('',#411,8.00000000005002);
#350=FILL_AREA_STYLE_COLOUR('',#412);
#351=CIRCLE('',#413,12.5000000000589);
#352=FILL_AREA_STYLE_COLOUR('',#414);
#353=CIRCLE('',#415,14.50000000005);
#354=FILL_AREA_STYLE_COLOUR('',#416);
#355=CIRCLE('',#417,14.50000000005);
#356=FILL_AREA_STYLE_COLOUR('',#418);
#357=FILL_AREA_STYLE_COLOUR('',#419);
#358=COLOUR_RGB('',0.509803950786591,0.509803950786591,0.588235318660736);
#359=CARTESIAN_POINT('',(-6.53332222411903,-4.61689297218733,14.4999997184993));
#360=CARTESIAN_POINT('',(-6.56574708041799,-4.56962353218289,14.4025010176452));
#361=AXIS2_PLACEMENT_3D('',#420,#421,#422);
#362=CARTESIAN_POINT('',(8.00000000005002,4.89858719662004E-016,14.4999997184993));
#363=AXIS2_PLACEMENT_3D('',#423,#424,#425);
#364=CARTESIAN_POINT('',(6.59937722238515,4.52197083992525,14.4999997184993));
#365=AXIS2_PLACEMENT_3D('',#426,#427,#428);
#366=CARTESIAN_POINT('',(-4.67800251568475,-5.59262115222876,11.2077543967439));
#367=AXIS2_PLACEMENT_3D('',#429,#430,#431);
#368=CARTESIAN_POINT('',(-6.55348294462859,-4.58632794532991,14.3678740229776));
#369=AXIS2_PLACEMENT_3D('',#432,#433,#434);
#370=AXIS2_PLACEMENT_3D('',#435,#436,#437);
#371=COLOUR_RGB('',0.509803950786591,0.509803950786591,0.588235318660736);
#372=CARTESIAN_POINT('',(-6.68500225877176,-4.39439925371112,14.4999997184993));
#373=AXIS2_PLACEMENT_3D('',#438,#439,#440);
#374=CARTESIAN_POINT('',(-8.00000000005002,-4.89858719662004E-016,14.4999997184993));
#375=AXIS2_PLACEMENT_3D('',#441,#442,#443);
#376=AXIS2_PLACEMENT_3D('',#444,#445,#446);
#377=COLOUR_RGB('',0.509803950786591,0.509803950786591,0.588235318660736);
#378=CARTESIAN_POINT('',(-6.59937703209957,-4.52197111770157,14.4999997184993));
#379=AXIS2_PLACEMENT_3D('',#447,#448,#449);
#380=AXIS2_PLACEMENT_3D('',#450,#451,#452);
#381=COLOUR_RGB('',0.509803950786591,0.509803950786591,0.588235318660736);
#382=CARTESIAN_POINT('',(-14.5000000000501,0.0,4.99999999994903));
#383=CARTESIAN_POINT('',(14.5000000000501,1.77573785876979E-015,4.99999999994903));
#384=AXIS2_PLACEMENT_3D('',#453,#454,#455);
#385=CARTESIAN_POINT('',(14.50000000005,1.77573785876979E-015,0.0));
#386=CARTESIAN_POINT('',(14.50000000005,1.77573785876979E-015,2.49999999997451));
#387=VECTOR('',#456,1000.0);
#388=CARTESIAN_POINT('',(-14.50000000005,0.0,0.0));
#389=AXIS2_PLACEMENT_3D('',#457,#458,#459);
#390=CARTESIAN_POINT('',(-14.50000000005,0.0,2.49999999997451));
#391=VECTOR('',#460,1000.0);
#392=COLOUR_RGB('',0.509803950786591,0.509803950786591,0.588235318660736);
#393=CARTESIAN_POINT('',(-12.5000000000589,0.0,18.0));
#394=CARTESIAN_POINT('',(12.5000000000589,1.6532731788556E-015,18.0));
#395=AXIS2_PLACEMENT_3D('',#461,#462,#463);
#396=CARTESIAN_POINT('',(14.50000000005,1.77573785876979E-015,4.99999999994903));
#397=VECTOR('',#464,1000.0);
#398=CARTESIAN_POINT('',(-14.50000000005,0.0,4.99999999994903));
#399=VECTOR('',#465,1000.0);
#400=COLOUR_RGB('',0.509803950786591,0.509803950786591,0.588235318660736);
#401=CARTESIAN_POINT('',(8.00000000005002,4.89858719662004E-016,18.0));
#402=CARTESIAN_POINT('',(-8.00000000005002,-4.89858719662004E-016,18.0));
#403=AXIS2_PLACEMENT_3D('',#466,#467,#468);
#404=CARTESIAN_POINT('',(8.00000000005002,4.89858719662004E-016,18.0));
#405=VECTOR('',#469,1000.0);
#406=AXIS2_PLACEMENT_3D('',#470,#471,#472);
#407=CARTESIAN_POINT('',(-8.00000000005002,-4.89858719662004E-016,18.0));
#408=VECTOR('',#473,1000.0);
#409=COLOUR_RGB('',0.509803950786591,0.509803950786591,0.588235318660736);
#410=COLOUR_RGB('',0.509803950786591,0.509803950786591,0.588235318660736);
#411=AXIS2_PLACEMENT_3D('',#474,#475,#476);
#412=COLOUR_RGB('',0.509803950786591,0.509803950786591,0.588235318660736);
#413=AXIS2_PLACEMENT_3D('',#477,#478,#479);
#414=COLOUR_RGB('',0.509803950786591,0.509803950786591,0.588235318660736);
#415=AXIS2_PLACEMENT_3D('',#480,#481,#482);
#416=COLOUR_RGB('',0.509803950786591,0.509803950786591,0.588235318660736);
#417=AXIS2_PLACEMENT_3D('',#483,#484,#485);
#418=COLOUR_RGB('',0.509803950786591,0.509803950786591,0.588235318660736);
#419=COLOUR_RGB('',0.509803950786591,0.509803950786591,0.588235318660736);
#420=CARTESIAN_POINT('',(-5.00196005237809E-011,7.98981799968874E-017,14.5));
#421=DIRECTION('',(0.497512762922594,-0.704025644016713,-0.506782935087577));
#422=DIRECTION('',(2.76175062219043E-017,0.584217011132234,-0.811597488847593));
#423=CARTESIAN_POINT('',(0.0,-4.89858719662004E-016,14.4999997184993));
#424=DIRECTION('',(0.0,0.0,-1.0));
#425=DIRECTION('',(-1.0,0.0,0.0));
#426=CARTESIAN_POINT('',(0.0,-4.89858719662004E-016,14.4999997184993));
#427=DIRECTION('',(0.0,0.0,-1.0));
#428=DIRECTION('',(-1.0,0.0,0.0));
#429=CARTESIAN_POINT('',(-5.00207514297912E-011,0.0,14.5));
#430=DIRECTION('',(0.485090472249675,-0.70794239551881,0.513327184512643));
#431=DIRECTION('',(-0.584750314450685,-0.699077644024223,-0.411530700404437));
#432=CARTESIAN_POINT('',(-5.00222085975111E-011,0.0,14.5));
#433=DIRECTION('',(-0.485090472249675,0.70794239551881,-0.513327184512643));
#434=DIRECTION('',(-0.584750314450685,-0.699077644024223,-0.411530700404437));
#435=CARTESIAN_POINT('',(-5.00222085975111E-011,0.0,14.5));
#436=DIRECTION('',(-0.485090472249675,0.70794239551881,-0.513327184512643));
#437=DIRECTION('',(-0.584750314450685,-0.699077644024223,-0.411530700404437));
#438=CARTESIAN_POINT('',(-5.00185806991809E-011,6.10287388847813E-015,14.5));
#439=DIRECTION('',(-0.271286279794225,0.412695691322746,-0.869532070000326));
#440=DIRECTION('',(-1.50594137045284E-017,0.90341115968787,0.428775321761197));
#441=CARTESIAN_POINT('',(0.0,-4.89858719662004E-016,14.4999997184993));
#442=DIRECTION('',(0.0,0.0,-1.0));
#443=DIRECTION('',(-1.0,0.0,0.0));
#444=CARTESIAN_POINT('',(0.0,-4.89858719662004E-016,14.4999997184993));
#445=DIRECTION('',(0.0,0.0,-1.0));
#446=DIRECTION('',(-1.0,0.0,0.0));
#447=CARTESIAN_POINT('',(0.0,-4.89858719662004E-016,14.4999997184993));
#448=DIRECTION('',(0.0,0.0,-1.0));
#449=DIRECTION('',(-1.0,0.0,0.0));
#450=CARTESIAN_POINT('',(-5.00222085975111E-011,0.0,14.5));
#451=DIRECTION('',(-0.485090472249675,0.70794239551881,-0.513327184512643));
#452=DIRECTION('',(-0.584750314450685,-0.699077644024223,-0.411530700404437));
#453=CARTESIAN_POINT('',(0.0,0.0,4.99999999994903));
#454=DIRECTION('',(0.0,0.0,-1.0));
#455=DIRECTION('',(-1.0,0.0,0.0));
#456=DIRECTION('',(0.0,0.0,-1.0));
#457=CARTESIAN_POINT('',(0.0,0.0,0.0));
#458=DIRECTION('',(0.0,0.0,-1.0));
#459=DIRECTION('',(-1.0,0.0,0.0));
#460=DIRECTION('',(0.0,0.0,-1.0));
#461=CARTESIAN_POINT('',(0.0,0.0,18.0));
#462=DIRECTION('',(0.0,0.0,-1.0));
#463=DIRECTION('',(-1.0,0.0,0.0));
#464=DIRECTION('',(0.152057184252704,1.86216343982434E-017,-0.988371697650807));
#465=DIRECTION('',(-0.152057184252704,0.0,-0.988371697650807));
#466=CARTESIAN_POINT('',(0.0,-4.89858719662004E-016,18.0));
#467=DIRECTION('',(0.0,0.0,-1.0));
#468=DIRECTION('',(-1.0,0.0,0.0));
#469=DIRECTION('',(0.0,0.0,-1.0));
#470=CARTESIAN_POINT('',(0.0,-4.89858719662004E-016,14.4999997184993));
#471=DIRECTION('',(0.0,0.0,-1.0));
#472=DIRECTION('',(-1.0,0.0,0.0));
#473=DIRECTION('',(0.0,0.0,-1.0));
#474=CARTESIAN_POINT('',(0.0,-4.89858719662004E-016,18.0));
#475=DIRECTION('',(0.0,0.0,-1.0));
#476=DIRECTION('',(-1.0,0.0,0.0));
#477=CARTESIAN_POINT('',(0.0,0.0,18.0));
#478=DIRECTION('',(0.0,0.0,-1.0));
#479=DIRECTION('',(-1.0,0.0,0.0));
#480=CARTESIAN_POINT('',(0.0,0.0,4.99999999994903));
#481=DIRECTION('',(0.0,0.0,-1.0));
#482=DIRECTION('',(-1.0,0.0,0.0));
#483=CARTESIAN_POINT('',(0.0,0.0,0.0));
#484=DIRECTION('',(0.0,0.0,-1.0));
#485=DIRECTION('',(-1.0,0.0,0.0));
ENDSEC;
END-ISO-10303-21;
