ISO-10303-21;
HEADER;
FILE_DESCRIPTION(('STEP AP214'),'1');
FILE_NAME('cctmp_456D68E2-0D03-4048-8E98-E05C89D0A7F2_2020_1_15_8_56_21_417..stp','2020-01-15T07:56:21',('Bosch Rexroth AG'),('CADClick - www.CADClick.com'),'Spatial InterOp 3D',' ','unknown authorization - (Healing Option Enabled)');
FILE_SCHEMA(('AUTOMOTIVE_DESIGN'));
ENDSEC;
DATA;
#1=MECHANICAL_DESIGN_GEOMETRIC_PRESENTATION_REPRESENTATION(' ',(#10,#11,#12,#13,#14,#15,#16,#17,#18,#19,#20,#21,#22),#6);
#2=PRODUCT_DEFINITION_CONTEXT('',#23,'design');
#3=APPLICATION_PROTOCOL_DEFINITION('INTERNATIONAL STANDARD','automotive_design',1994,#23);
#4=PRODUCT_CATEGORY_RELATIONSHIP('NONE','NONE',#24,#25);
#5=SHAPE_DEFINITION_REPRESENTATION(#26,#27);
#6= (GEOMETRIC_REPRESENTATION_CONTEXT(3)GLOBAL_UNCERTAINTY_ASSIGNED_CONTEXT((#30))GLOBAL_UNIT_ASSIGNED_CONTEXT((#32,#33,#34))REPRESENTATION_CONTEXT('NONE','WORKSPACE'));
#10=STYLED_ITEM('',(#36),#37);
#11=STYLED_ITEM('',(#38),#39);
#12=STYLED_ITEM('',(#40),#41);
#13=STYLED_ITEM('',(#42),#43);
#14=STYLED_ITEM('',(#44),#45);
#15=STYLED_ITEM('',(#46),#47);
#16=STYLED_ITEM('',(#48),#49);
#17=STYLED_ITEM('',(#50),#51);
#18=STYLED_ITEM('',(#52),#53);
#19=STYLED_ITEM('',(#54),#55);
#20=STYLED_ITEM('',(#56),#57);
#21=STYLED_ITEM('',(#58),#59);
#22=STYLED_ITEM('',(#60),#61);
#23=APPLICATION_CONTEXT(' ');
#24=PRODUCT_CATEGORY('part','NONE');
#25=PRODUCT_RELATED_PRODUCT_CATEGORY('detail',' ',(#62));
#26=PRODUCT_DEFINITION_SHAPE('NONE','NONE',#63);
#27=ADVANCED_BREP_SHAPE_REPRESENTATION('2020_01_15__08-56-21-417',(#61,#64),#6);
#30=UNCERTAINTY_MEASURE_WITH_UNIT(LENGTH_MEASURE(1.0E-006),#32,'','');
#32= (CONVERSION_BASED_UNIT('MILLIMETRE',#67)LENGTH_UNIT()NAMED_UNIT(#70));
#33= (NAMED_UNIT(#72)PLANE_ANGLE_UNIT()SI_UNIT($,.RADIAN.));
#34= (NAMED_UNIT(#72)SOLID_ANGLE_UNIT()SI_UNIT($,.STERADIAN.));
#36=PRESENTATION_STYLE_ASSIGNMENT((#78));
#37=ADVANCED_FACE('',(#79),#80,.F.);
#38=PRESENTATION_STYLE_ASSIGNMENT((#81));
#39=ADVANCED_FACE('',(#82),#83,.F.);
#40=PRESENTATION_STYLE_ASSIGNMENT((#84));
#41=ADVANCED_FACE('',(#85),#86,.F.);
#42=PRESENTATION_STYLE_ASSIGNMENT((#87));
#43=ADVANCED_FACE('',(#88),#89,.T.);
#44=PRESENTATION_STYLE_ASSIGNMENT((#90));
#45=ADVANCED_FACE('',(#91),#92,.T.);
#46=PRESENTATION_STYLE_ASSIGNMENT((#93));
#47=ADVANCED_FACE('',(#94),#95,.F.);
#48=PRESENTATION_STYLE_ASSIGNMENT((#96));
#49=ADVANCED_FACE('',(#97),#98,.F.);
#50=PRESENTATION_STYLE_ASSIGNMENT((#99));
#51=ADVANCED_FACE('',(#100),#101,.F.);
#52=PRESENTATION_STYLE_ASSIGNMENT((#102));
#53=ADVANCED_FACE('',(#103,#104),#105,.T.);
#54=PRESENTATION_STYLE_ASSIGNMENT((#106));
#55=ADVANCED_FACE('',(#107),#108,.T.);
#56=PRESENTATION_STYLE_ASSIGNMENT((#109));
#57=ADVANCED_FACE('',(#110),#111,.T.);
#58=PRESENTATION_STYLE_ASSIGNMENT((#112));
#59=ADVANCED_FACE('',(#113),#114,.T.);
#60=PRESENTATION_STYLE_ASSIGNMENT((#115));
#61=MANIFOLD_SOLID_BREP('2020_01_15__08-56-21-417',#116);
#62=PRODUCT('2020_01_15__08-56-21-417','','PART--DESC',(#117));
#63=PRODUCT_DEFINITION('','NONE',#118,#2);
#64=AXIS2_PLACEMENT_3D('',#119,#120,#121);
#67=LENGTH_MEASURE_WITH_UNIT(LENGTH_MEASURE(1.0),#122);
#70=DIMENSIONAL_EXPONENTS(1.0,0.0,0.0,0.0,0.0,0.0,0.0);
#72=DIMENSIONAL_EXPONENTS(0.0,0.0,0.0,0.0,0.0,0.0,0.0);
#78=SURFACE_STYLE_USAGE(.BOTH.,#123);
#79=FACE_OUTER_BOUND('',#124,.T.);
#80=SPHERICAL_SURFACE('',#125,7.99999999999999);
#81=SURFACE_STYLE_USAGE(.BOTH.,#126);
#82=FACE_OUTER_BOUND('',#127,.T.);
#83=SPHERICAL_SURFACE('',#128,8.0);
#84=SURFACE_STYLE_USAGE(.BOTH.,#129);
#85=FACE_OUTER_BOUND('',#130,.T.);
#86=SPHERICAL_SURFACE('',#131,8.0);
#87=SURFACE_STYLE_USAGE(.BOTH.,#132);
#88=FACE_OUTER_BOUND('',#133,.T.);
#89=CYLINDRICAL_SURFACE('',#134,29.5000000000001);
#90=SURFACE_STYLE_USAGE(.BOTH.,#135);
#91=FACE_OUTER_BOUND('',#136,.T.);
#92=CONICAL_SURFACE('',#137,29.5000000000001,0.917949695692958);
#93=SURFACE_STYLE_USAGE(.BOTH.,#138);
#94=FACE_OUTER_BOUND('',#139,.T.);
#95=CYLINDRICAL_SURFACE('',#140,8.0);
#96=SURFACE_STYLE_USAGE(.BOTH.,#141);
#97=FACE_OUTER_BOUND('',#142,.T.);
#98=SPHERICAL_SURFACE('',#143,7.99999999999999);
#99=SURFACE_STYLE_USAGE(.BOTH.,#144);
#100=FACE_OUTER_BOUND('',#145,.T.);
#101=CYLINDRICAL_SURFACE('',#146,8.0);
#102=SURFACE_STYLE_USAGE(.BOTH.,#147);
#103=FACE_BOUND('',#148,.T.);
#104=FACE_OUTER_BOUND('',#149,.T.);
#105=PLANE('',#150);
#106=SURFACE_STYLE_USAGE(.BOTH.,#151);
#107=FACE_OUTER_BOUND('',#152,.T.);
#108=CONICAL_SURFACE('',#153,29.5000000000001,0.917949695692958);
#109=SURFACE_STYLE_USAGE(.BOTH.,#154);
#110=FACE_OUTER_BOUND('',#155,.T.);
#111=CYLINDRICAL_SURFACE('',#156,29.5000000000001);
#112=SURFACE_STYLE_USAGE(.BOTH.,#157);
#113=FACE_OUTER_BOUND('',#158,.T.);
#114=PLANE('',#159);
#115=SURFACE_STYLE_USAGE(.BOTH.,#160);
#116=CLOSED_SHELL('',(#37,#39,#41,#43,#45,#47,#49,#51,#53,#55,#57,#59));
#117=PRODUCT_CONTEXT('',#23,'mechanical');
#118=PRODUCT_DEFINITION_FORMATION_WITH_SPECIFIED_SOURCE(' ','NONE',#62,.NOT_KNOWN.);
#119=CARTESIAN_POINT('',(0.0,0.0,0.0));
#120=DIRECTION('',(0.0,0.0,1.0));
#121=DIRECTION('',(1.0,0.0,0.0));
#122= (NAMED_UNIT(#70)LENGTH_UNIT()SI_UNIT(.MILLI.,.METRE.));
#123=SURFACE_SIDE_STYLE('',(#162));
#124=EDGE_LOOP('',(#163,#164,#165,#166,#167));
#125=AXIS2_PLACEMENT_3D('',#168,#169,#170);
#126=SURFACE_SIDE_STYLE('',(#171));
#127=EDGE_LOOP('',(#172,#173,#174,#175,#176,#177));
#128=AXIS2_PLACEMENT_3D('',#178,#179,#180);
#129=SURFACE_SIDE_STYLE('',(#181));
#130=EDGE_LOOP('',(#182,#183,#184));
#131=AXIS2_PLACEMENT_3D('',#185,#186,#187);
#132=SURFACE_SIDE_STYLE('',(#188));
#133=EDGE_LOOP('',(#189,#190,#191,#192));
#134=AXIS2_PLACEMENT_3D('',#193,#194,#195);
#135=SURFACE_SIDE_STYLE('',(#196));
#136=EDGE_LOOP('',(#197,#198,#199,#200));
#137=AXIS2_PLACEMENT_3D('',#201,#202,#203);
#138=SURFACE_SIDE_STYLE('',(#204));
#139=EDGE_LOOP('',(#205,#206,#207,#208,#209,#210,#211));
#140=AXIS2_PLACEMENT_3D('',#212,#213,#214);
#141=SURFACE_SIDE_STYLE('',(#215));
#142=EDGE_LOOP('',(#216,#217,#218,#219));
#143=AXIS2_PLACEMENT_3D('',#220,#221,#222);
#144=SURFACE_SIDE_STYLE('',(#223));
#145=EDGE_LOOP('',(#224,#225,#226,#227,#228));
#146=AXIS2_PLACEMENT_3D('',#229,#230,#231);
#147=SURFACE_SIDE_STYLE('',(#232));
#148=EDGE_LOOP('',(#233,#234));
#149=EDGE_LOOP('',(#235,#236));
#150=AXIS2_PLACEMENT_3D('',#237,#238,#239);
#151=SURFACE_SIDE_STYLE('',(#240));
#152=EDGE_LOOP('',(#241,#242,#243,#244));
#153=AXIS2_PLACEMENT_3D('',#245,#246,#247);
#154=SURFACE_SIDE_STYLE('',(#248));
#155=EDGE_LOOP('',(#249,#250,#251,#252));
#156=AXIS2_PLACEMENT_3D('',#253,#254,#255);
#157=SURFACE_SIDE_STYLE('',(#256));
#158=EDGE_LOOP('',(#257,#258));
#159=AXIS2_PLACEMENT_3D('',#259,#260,#261);
#160=SURFACE_SIDE_STYLE('',(#262));
#162=SURFACE_STYLE_FILL_AREA(#263);
#163=ORIENTED_EDGE('',*,*,#264,.F.);
#164=ORIENTED_EDGE('',*,*,#265,.F.);
#165=ORIENTED_EDGE('',*,*,#266,.T.);
#166=ORIENTED_EDGE('',*,*,#267,.F.);
#167=ORIENTED_EDGE('',*,*,#268,.F.);
#168=CARTESIAN_POINT('',(-2.22044604925031E-015,4.44089209850063E-015,16.0));
#169=DIRECTION('',(-0.988792910386587,-8.14446844975317E-018,0.149293604582455));
#170=DIRECTION('',(-0.043808028668195,-0.955978904407757,-0.290146843773202));
#171=SURFACE_STYLE_FILL_AREA(#269);
#172=ORIENTED_EDGE('',*,*,#270,.F.);
#173=ORIENTED_EDGE('',*,*,#271,.F.);
#174=ORIENTED_EDGE('',*,*,#272,.F.);
#175=ORIENTED_EDGE('',*,*,#266,.F.);
#176=ORIENTED_EDGE('',*,*,#265,.T.);
#177=ORIENTED_EDGE('',*,*,#273,.T.);
#178=CARTESIAN_POINT('',(-4.44089209850063E-015,-7.105427357601E-015,16.0));
#179=DIRECTION('',(-0.619955029786638,0.0,-0.784637343644979));
#180=DIRECTION('',(-0.664846866882238,-0.531066512877175,0.525306579529849));
#181=SURFACE_STYLE_FILL_AREA(#274);
#182=ORIENTED_EDGE('',*,*,#270,.T.);
#183=ORIENTED_EDGE('',*,*,#275,.T.);
#184=ORIENTED_EDGE('',*,*,#276,.F.);
#185=CARTESIAN_POINT('',(-4.44089209850063E-015,-7.105427357601E-015,16.0));
#186=DIRECTION('',(-0.619955029786638,0.0,-0.784637343644979));
#187=DIRECTION('',(-0.664846866882238,-0.531066512877175,0.525306579529849));
#188=SURFACE_STYLE_FILL_AREA(#277);
#189=ORIENTED_EDGE('',*,*,#278,.T.);
#190=ORIENTED_EDGE('',*,*,#279,.T.);
#191=ORIENTED_EDGE('',*,*,#280,.F.);
#192=ORIENTED_EDGE('',*,*,#281,.F.);
#193=CARTESIAN_POINT('',(0.0,0.0,2.49999999997574));
#194=DIRECTION('',(0.0,-2.22044604925031E-016,-1.0));
#195=DIRECTION('',(0.0,1.0,-2.22044604925031E-016));
#196=SURFACE_STYLE_FILL_AREA(#282);
#197=ORIENTED_EDGE('',*,*,#283,.T.);
#198=ORIENTED_EDGE('',*,*,#284,.T.);
#199=ORIENTED_EDGE('',*,*,#278,.F.);
#200=ORIENTED_EDGE('',*,*,#285,.F.);
#201=CARTESIAN_POINT('',(0.0,-1.50990331349561E-015,4.99999999995145));
#202=DIRECTION('',(0.0,-2.20515696098746E-016,-1.0));
#203=DIRECTION('',(0.0,1.0,-2.20515696098746E-016));
#204=SURFACE_STYLE_FILL_AREA(#286);
#205=ORIENTED_EDGE('',*,*,#287,.F.);
#206=ORIENTED_EDGE('',*,*,#288,.T.);
#207=ORIENTED_EDGE('',*,*,#271,.T.);
#208=ORIENTED_EDGE('',*,*,#276,.T.);
#209=ORIENTED_EDGE('',*,*,#289,.T.);
#210=ORIENTED_EDGE('',*,*,#268,.T.);
#211=ORIENTED_EDGE('',*,*,#290,.F.);
#212=CARTESIAN_POINT('',(0.0,-2.01200733256398E-016,18.6));
#213=DIRECTION('',(0.0,-2.22044604925031E-016,-1.0));
#214=DIRECTION('',(0.0,1.0,-2.22044604925031E-016));
#215=SURFACE_STYLE_FILL_AREA(#291);
#216=ORIENTED_EDGE('',*,*,#264,.T.);
#217=ORIENTED_EDGE('',*,*,#289,.F.);
#218=ORIENTED_EDGE('',*,*,#275,.F.);
#219=ORIENTED_EDGE('',*,*,#273,.F.);
#220=CARTESIAN_POINT('',(-2.22044604925031E-015,4.44089209850063E-015,16.0));
#221=DIRECTION('',(-0.988792910386587,-8.14446844975317E-018,0.149293604582455));
#222=DIRECTION('',(-0.043808028668195,-0.955978904407757,-0.290146843773202));
#223=SURFACE_STYLE_FILL_AREA(#292);
#224=ORIENTED_EDGE('',*,*,#288,.F.);
#225=ORIENTED_EDGE('',*,*,#293,.F.);
#226=ORIENTED_EDGE('',*,*,#290,.T.);
#227=ORIENTED_EDGE('',*,*,#267,.T.);
#228=ORIENTED_EDGE('',*,*,#272,.T.);
#229=CARTESIAN_POINT('',(0.0,-2.01200733256398E-016,18.6));
#230=DIRECTION('',(0.0,-2.22044604925031E-016,-1.0));
#231=DIRECTION('',(0.0,1.0,-2.22044604925031E-016));
#232=SURFACE_STYLE_FILL_AREA(#294);
#233=ORIENTED_EDGE('',*,*,#293,.T.);
#234=ORIENTED_EDGE('',*,*,#287,.T.);
#235=ORIENTED_EDGE('',*,*,#283,.F.);
#236=ORIENTED_EDGE('',*,*,#295,.F.);
#237=CARTESIAN_POINT('',(-9.85769230768204,0.0,18.6));
#238=DIRECTION('',(0.0,2.22044604925031E-016,1.0));
#239=DIRECTION('',(0.0,-1.0,2.22044604925031E-016));
#240=SURFACE_STYLE_FILL_AREA(#296);
#241=ORIENTED_EDGE('',*,*,#284,.F.);
#242=ORIENTED_EDGE('',*,*,#295,.T.);
#243=ORIENTED_EDGE('',*,*,#285,.T.);
#244=ORIENTED_EDGE('',*,*,#297,.F.);
#245=CARTESIAN_POINT('',(0.0,-1.50990331349561E-015,4.99999999995145));
#246=DIRECTION('',(0.0,-2.20515696098746E-016,-1.0));
#247=DIRECTION('',(0.0,1.0,-2.20515696098746E-016));
#248=SURFACE_STYLE_FILL_AREA(#298);
#249=ORIENTED_EDGE('',*,*,#279,.F.);
#250=ORIENTED_EDGE('',*,*,#297,.T.);
#251=ORIENTED_EDGE('',*,*,#281,.T.);
#252=ORIENTED_EDGE('',*,*,#299,.F.);
#253=CARTESIAN_POINT('',(0.0,0.0,2.49999999997574));
#254=DIRECTION('',(0.0,-2.22044604925031E-016,-1.0));
#255=DIRECTION('',(0.0,1.0,-2.22044604925031E-016));
#256=SURFACE_STYLE_FILL_AREA(#300);
#257=ORIENTED_EDGE('',*,*,#280,.T.);
#258=ORIENTED_EDGE('',*,*,#299,.T.);
#259=CARTESIAN_POINT('',(-14.75,0.0,-7.105427357601E-015));
#260=DIRECTION('',(0.0,-2.22044604925031E-016,-1.0));
#261=DIRECTION('',(0.0,1.0,-2.22044604925031E-016));
#262=SURFACE_STYLE_FILL_AREA(#301);
#263=FILL_AREA_STYLE('',(#302));
#264=EDGE_CURVE('',#303,#304,#305,.T.);
#265=EDGE_CURVE('',#306,#303,#307,.T.);
#266=EDGE_CURVE('',#306,#308,#309,.T.);
#267=EDGE_CURVE('',#310,#308,#311,.T.);
#268=EDGE_CURVE('',#304,#310,#312,.T.);
#269=FILL_AREA_STYLE('',(#313));
#270=EDGE_CURVE('',#314,#315,#316,.T.);
#271=EDGE_CURVE('',#317,#314,#318,.T.);
#272=EDGE_CURVE('',#308,#317,#319,.T.);
#273=EDGE_CURVE('',#303,#315,#320,.T.);
#274=FILL_AREA_STYLE('',(#321));
#275=EDGE_CURVE('',#315,#322,#323,.T.);
#276=EDGE_CURVE('',#314,#322,#324,.T.);
#277=FILL_AREA_STYLE('',(#325));
#278=EDGE_CURVE('',#326,#327,#328,.T.);
#279=EDGE_CURVE('',#327,#329,#330,.T.);
#280=EDGE_CURVE('',#331,#329,#332,.T.);
#281=EDGE_CURVE('',#326,#331,#333,.T.);
#282=FILL_AREA_STYLE('',(#334));
#283=EDGE_CURVE('',#335,#336,#337,.T.);
#284=EDGE_CURVE('',#336,#327,#338,.T.);
#285=EDGE_CURVE('',#335,#326,#339,.T.);
#286=FILL_AREA_STYLE('',(#340));
#287=EDGE_CURVE('',#341,#342,#343,.T.);
#288=EDGE_CURVE('',#341,#317,#344,.T.);
#289=EDGE_CURVE('',#322,#304,#345,.T.);
#290=EDGE_CURVE('',#342,#310,#346,.T.);
#291=FILL_AREA_STYLE('',(#347));
#292=FILL_AREA_STYLE('',(#348));
#293=EDGE_CURVE('',#342,#341,#349,.T.);
#294=FILL_AREA_STYLE('',(#350));
#295=EDGE_CURVE('',#336,#335,#351,.T.);
#296=FILL_AREA_STYLE('',(#352));
#297=EDGE_CURVE('',#327,#326,#353,.T.);
#298=FILL_AREA_STYLE('',(#354));
#299=EDGE_CURVE('',#329,#331,#355,.T.);
#300=FILL_AREA_STYLE('',(#356));
#301=FILL_AREA_STYLE('',(#357));
#302=FILL_AREA_STYLE_COLOUR('',#358);
#303=VERTEX_POINT('',#359);
#304=VERTEX_POINT('',#360);
#305=CIRCLE('',#361,7.99999999999999);
#306=VERTEX_POINT('',#362);
#307=CIRCLE('',#363,8.0);
#308=VERTEX_POINT('',#364);
#309=CIRCLE('',#365,8.0);
#310=VERTEX_POINT('',#366);
#311=CIRCLE('',#367,8.0);
#312=CIRCLE('',#368,8.0);
#313=FILL_AREA_STYLE_COLOUR('',#369);
#314=VERTEX_POINT('',#370);
#315=VERTEX_POINT('',#371);
#316=CIRCLE('',#372,8.0);
#317=VERTEX_POINT('',#373);
#318=CIRCLE('',#374,8.0);
#319=CIRCLE('',#375,8.0);
#320=CIRCLE('',#376,8.0);
#321=FILL_AREA_STYLE_COLOUR('',#377);
#322=VERTEX_POINT('',#378);
#323=CIRCLE('',#379,8.0);
#324=CIRCLE('',#380,8.0);
#325=FILL_AREA_STYLE_COLOUR('',#381);
#326=VERTEX_POINT('',#382);
#327=VERTEX_POINT('',#383);
#328=CIRCLE('',#384,29.5000000000001);
#329=VERTEX_POINT('',#385);
#330=LINE('',#386,#387);
#331=VERTEX_POINT('',#388);
#332=CIRCLE('',#389,29.5000000000001);
#333=LINE('',#390,#391);
#334=FILL_AREA_STYLE_COLOUR('',#392);
#335=VERTEX_POINT('',#393);
#336=VERTEX_POINT('',#394);
#337=CIRCLE('',#395,11.7153846153641);
#338=LINE('',#396,#397);
#339=LINE('',#398,#399);
#340=FILL_AREA_STYLE_COLOUR('',#400);
#341=VERTEX_POINT('',#401);
#342=VERTEX_POINT('',#402);
#343=CIRCLE('',#403,8.0);
#344=LINE('',#404,#405);
#345=CIRCLE('',#406,8.0);
#346=LINE('',#407,#408);
#347=FILL_AREA_STYLE_COLOUR('',#409);
#348=FILL_AREA_STYLE_COLOUR('',#410);
#349=CIRCLE('',#411,8.0);
#350=FILL_AREA_STYLE_COLOUR('',#412);
#351=CIRCLE('',#413,11.7153846153641);
#352=FILL_AREA_STYLE_COLOUR('',#414);
#353=CIRCLE('',#415,29.5000000000001);
#354=FILL_AREA_STYLE_COLOUR('',#416);
#355=CIRCLE('',#417,29.5000000000001);
#356=FILL_AREA_STYLE_COLOUR('',#418);
#357=FILL_AREA_STYLE_COLOUR('',#419);
#358=COLOUR_RGB('',0.509803950786591,0.509803950786591,0.588235318660736);
#359=CARTESIAN_POINT('',(-7.17894677888064,-3.53023796314743,15.9880388315));
#360=CARTESIAN_POINT('',(-7.19417793665157,-3.49911471886759,16.0));
#361=AXIS2_PLACEMENT_3D('',#420,#421,#422);
#362=CARTESIAN_POINT('',(-4.72387893418236,-5.9305989196793,13.4479490073498));
#363=AXIS2_PLACEMENT_3D('',#423,#424,#425);
#364=CARTESIAN_POINT('',(7.18566443646321,3.5165646029254,16.0));
#365=AXIS2_PLACEMENT_3D('',#426,#427,#428);
#366=CARTESIAN_POINT('',(0.0,8.0,16.0));
#367=AXIS2_PLACEMENT_3D('',#429,#430,#431);
#368=AXIS2_PLACEMENT_3D('',#432,#433,#434);
#369=COLOUR_RGB('',0.509803950786591,0.509803950786591,0.588235318660736);
#370=CARTESIAN_POINT('',(-7.17888401280979,-3.53038586143555,16.0));
#371=CARTESIAN_POINT('',(-7.18033847590363,-3.52741397120278,15.9905106785655));
#372=AXIS2_PLACEMENT_3D('',#435,#436,#437);
#373=CARTESIAN_POINT('',(9.79717439317883E-016,-8.0,16.0));
#374=AXIS2_PLACEMENT_3D('',#438,#439,#440);
#375=AXIS2_PLACEMENT_3D('',#441,#442,#443);
#376=AXIS2_PLACEMENT_3D('',#444,#445,#446);
#377=COLOUR_RGB('',0.509803950786591,0.509803950786591,0.588235318660736);
#378=CARTESIAN_POINT('',(-7.18566443646321,-3.5165646029254,16.0));
#379=AXIS2_PLACEMENT_3D('',#447,#448,#449);
#380=AXIS2_PLACEMENT_3D('',#450,#451,#452);
#381=COLOUR_RGB('',0.509803950786591,0.509803950786591,0.588235318660736);
#382=CARTESIAN_POINT('',(0.0,29.5,4.99999999995145));
#383=CARTESIAN_POINT('',(3.6127080574847E-015,-29.5,4.99999999995147));
#384=AXIS2_PLACEMENT_3D('',#453,#454,#455);
#385=CARTESIAN_POINT('',(3.6127080574847E-015,-29.5000000000001,6.55031584528844E-015));
#386=CARTESIAN_POINT('',(3.6127080574847E-015,-29.5000000000001,2.49999999997574));
#387=VECTOR('',#456,1000.0);
#388=CARTESIAN_POINT('',(0.0,29.5000000000001,-6.55031584528844E-015));
#389=AXIS2_PLACEMENT_3D('',#457,#458,#459);
#390=CARTESIAN_POINT('',(0.0,29.5000000000001,2.49999999997573));
#391=VECTOR('',#460,1000.0);
#392=COLOUR_RGB('',0.509803950786591,0.509803950786591,0.588235318660736);
#393=CARTESIAN_POINT('',(0.0,11.7153846153641,18.6));
#394=CARTESIAN_POINT('',(2.52371444224164E-015,-11.7153846153641,18.6));
#395=AXIS2_PLACEMENT_3D('',#461,#462,#463);
#396=CARTESIAN_POINT('',(3.6127080574847E-015,-29.5000000000001,4.99999999995146));
#397=VECTOR('',#464,1000.0);
#398=CARTESIAN_POINT('',(0.0,29.5000000000001,4.99999999995144));
#399=VECTOR('',#465,1000.0);
#400=COLOUR_RGB('',0.509803950786591,0.509803950786591,0.588235318660736);
#401=CARTESIAN_POINT('',(9.79717439317883E-016,-8.0,18.6));
#402=CARTESIAN_POINT('',(0.0,8.0,18.6));
#403=AXIS2_PLACEMENT_3D('',#466,#467,#468);
#404=CARTESIAN_POINT('',(9.79717439317883E-016,-8.0,18.6));
#405=VECTOR('',#469,1000.0);
#406=AXIS2_PLACEMENT_3D('',#470,#471,#472);
#407=CARTESIAN_POINT('',(0.0,8.0,18.6));
#408=VECTOR('',#473,1000.0);
#409=COLOUR_RGB('',0.509803950786591,0.509803950786591,0.588235318660736);
#410=COLOUR_RGB('',0.509803950786591,0.509803950786591,0.588235318660736);
#411=AXIS2_PLACEMENT_3D('',#474,#475,#476);
#412=COLOUR_RGB('',0.509803950786591,0.509803950786591,0.588235318660736);
#413=AXIS2_PLACEMENT_3D('',#477,#478,#479);
#414=COLOUR_RGB('',0.509803950786591,0.509803950786591,0.588235318660736);
#415=AXIS2_PLACEMENT_3D('',#480,#481,#482);
#416=COLOUR_RGB('',0.509803950786591,0.509803950786591,0.588235318660736);
#417=AXIS2_PLACEMENT_3D('',#483,#484,#485);
#418=COLOUR_RGB('',0.509803950786591,0.509803950786591,0.588235318660736);
#419=COLOUR_RGB('',0.509803950786591,0.509803950786591,0.588235318660736);
#420=CARTESIAN_POINT('',(-2.2123633475348E-015,4.42427406822094E-015,16.0));
#421=DIRECTION('',(-0.14272153654382,0.293435400603513,-0.945265163157527));
#422=DIRECTION('',(0.0,0.955042041023024,0.296470403039793));
#423=CARTESIAN_POINT('',(-8.67361737988404E-016,-8.67361737988404E-016,16.0));
#424=DIRECTION('',(-0.271453762226326,0.554682158761191,-0.786537066974722));
#425=DIRECTION('',(-0.590484866772795,-0.741324864959912,-0.319006374081274));
#426=CARTESIAN_POINT('',(0.0,0.0,16.0));
#427=DIRECTION('',(0.271453762226326,-0.554682158761191,0.786537066974722));
#428=DIRECTION('',(-0.590484866772795,-0.741324864959912,-0.319006374081274));
#429=CARTESIAN_POINT('',(0.0,-7.78516706061486E-016,16.0));
#430=DIRECTION('',(0.0,-2.22044604925031E-016,-1.0));
#431=DIRECTION('',(0.0,1.0,-2.22044604925031E-016));
#432=CARTESIAN_POINT('',(0.0,-7.78516706061486E-016,16.0));
#433=DIRECTION('',(0.0,-2.22044604925031E-016,-1.0));
#434=DIRECTION('',(0.0,1.0,-2.22044604925031E-016));
#435=CARTESIAN_POINT('',(-4.45788857801105E-015,-7.07086576580326E-015,16.0));
#436=DIRECTION('',(0.416694617962749,-0.84733013572071,-0.329237355809455));
#437=DIRECTION('',(-2.31311979549814E-017,0.362178771508647,-0.932108651106987));
#438=CARTESIAN_POINT('',(0.0,-7.78516706061486E-016,16.0));
#439=DIRECTION('',(0.0,-2.22044604925031E-016,-1.0));
#440=DIRECTION('',(0.0,1.0,-2.22044604925031E-016));
#441=CARTESIAN_POINT('',(0.0,-7.78516706061486E-016,16.0));
#442=DIRECTION('',(0.0,-2.22044604925031E-016,-1.0));
#443=DIRECTION('',(0.0,1.0,-2.22044604925031E-016));
#444=CARTESIAN_POINT('',(-8.67361737988404E-016,-8.67361737988404E-016,16.0));
#445=DIRECTION('',(-0.271453762226326,0.554682158761191,-0.786537066974722));
#446=DIRECTION('',(-0.590484866772795,-0.741324864959912,-0.319006374081274));
#447=CARTESIAN_POINT('',(-8.67361737988404E-016,-8.67361737988404E-016,16.0));
#448=DIRECTION('',(-0.271453762226326,0.554682158761191,-0.786537066974722));
#449=DIRECTION('',(-0.590484866772795,-0.741324864959912,-0.319006374081274));
#450=CARTESIAN_POINT('',(0.0,-7.78516706061486E-016,16.0));
#451=DIRECTION('',(0.0,-2.22044604925031E-016,-1.0));
#452=DIRECTION('',(0.0,1.0,-2.22044604925031E-016));
#453=CARTESIAN_POINT('',(0.0,5.55111512307188E-016,4.99999999995146));
#454=DIRECTION('',(0.0,-2.22044604925031E-016,-1.0));
#455=DIRECTION('',(0.0,1.0,-2.22044604925031E-016));
#456=DIRECTION('',(0.0,-2.22044604925031E-016,-1.0));
#457=CARTESIAN_POINT('',(0.0,0.0,0.0));
#458=DIRECTION('',(0.0,-2.22044604925031E-016,-1.0));
#459=DIRECTION('',(0.0,1.0,-2.22044604925031E-016));
#460=DIRECTION('',(0.0,-2.22044604925031E-016,-1.0));
#461=CARTESIAN_POINT('',(0.0,1.48911015345805E-015,18.6));
#462=DIRECTION('',(0.0,-2.20515696098746E-016,-1.0));
#463=DIRECTION('',(0.0,1.0,-2.20515696098746E-016));
#464=DIRECTION('',(9.72807777532285E-017,-0.794357832976489,-0.607450107571722));
#465=DIRECTION('',(0.0,0.794357832976489,-0.607450107571722));
#466=CARTESIAN_POINT('',(0.0,-2.01200733256398E-016,18.6));
#467=DIRECTION('',(0.0,-2.22044604925031E-016,-1.0));
#468=DIRECTION('',(0.0,1.0,-2.22044604925031E-016));
#469=DIRECTION('',(0.0,-2.22044604925031E-016,-1.0));
#470=CARTESIAN_POINT('',(0.0,-7.78516706061486E-016,16.0));
#471=DIRECTION('',(0.0,-2.22044604925031E-016,-1.0));
#472=DIRECTION('',(0.0,1.0,-2.22044604925031E-016));
#473=DIRECTION('',(0.0,-2.22044604925031E-016,-1.0));
#474=CARTESIAN_POINT('',(0.0,-2.01200733256398E-016,18.6));
#475=DIRECTION('',(0.0,-2.22044604925031E-016,-1.0));
#476=DIRECTION('',(0.0,1.0,-2.22044604925031E-016));
#477=CARTESIAN_POINT('',(0.0,1.48911015345805E-015,18.6));
#478=DIRECTION('',(0.0,-2.20515696098746E-016,-1.0));
#479=DIRECTION('',(0.0,1.0,-2.20515696098746E-016));
#480=CARTESIAN_POINT('',(0.0,5.55111512307188E-016,4.99999999995146));
#481=DIRECTION('',(0.0,-2.22044604925031E-016,-1.0));
#482=DIRECTION('',(0.0,1.0,-2.22044604925031E-016));
#483=CARTESIAN_POINT('',(0.0,0.0,0.0));
#484=DIRECTION('',(0.0,-2.22044604925031E-016,-1.0));
#485=DIRECTION('',(0.0,1.0,-2.22044604925031E-016));
ENDSEC;
END-ISO-10303-21;
