ISO-10303-21;
HEADER;
FILE_DESCRIPTION(('STEP AP214'),'1');
FILE_NAME('cctmp_65BDEAEA-D20D-4224-87E8-09DD8D927CF8_2020_1_15_8_53_14_751..stp','2020-01-15T07:53:14',('Bosch Rexroth AG'),('CADClick - www.CADClick.com'),'Spatial InterOp 3D',' ','unknown authorization - (Healing Option Enabled)');
FILE_SCHEMA(('AUTOMOTIVE_DESIGN'));
ENDSEC;
DATA;
#1=MECHANICAL_DESIGN_GEOMETRIC_PRESENTATION_REPRESENTATION(' ',(#10,#11,#12,#13,#14,#15,#16,#17,#18,#19,#20,#21,#22),#6);
#2=PRODUCT_DEFINITION_CONTEXT('',#23,'design');
#3=APPLICATION_PROTOCOL_DEFINITION('INTERNATIONAL STANDARD','automotive_design',1994,#23);
#4=PRODUCT_CATEGORY_RELATIONSHIP('NONE','NONE',#24,#25);
#5=SHAPE_DEFINITION_REPRESENTATION(#26,#27);
#6= (GEOMETRIC_REPRESENTATION_CONTEXT(3)GLOBAL_UNCERTAINTY_ASSIGNED_CONTEXT((#30))GLOBAL_UNIT_ASSIGNED_CONTEXT((#32,#33,#34))REPRESENTATION_CONTEXT('NONE','WORKSPACE'));
#10=STYLED_ITEM('',(#36),#37);
#11=STYLED_ITEM('',(#38),#39);
#12=STYLED_ITEM('',(#40),#41);
#13=STYLED_ITEM('',(#42),#43);
#14=STYLED_ITEM('',(#44),#45);
#15=STYLED_ITEM('',(#46),#47);
#16=STYLED_ITEM('',(#48),#49);
#17=STYLED_ITEM('',(#50),#51);
#18=STYLED_ITEM('',(#52),#53);
#19=STYLED_ITEM('',(#54),#55);
#20=STYLED_ITEM('',(#56),#57);
#21=STYLED_ITEM('',(#58),#59);
#22=STYLED_ITEM('',(#60),#61);
#23=APPLICATION_CONTEXT(' ');
#24=PRODUCT_CATEGORY('part','NONE');
#25=PRODUCT_RELATED_PRODUCT_CATEGORY('detail',' ',(#62));
#26=PRODUCT_DEFINITION_SHAPE('NONE','NONE',#63);
#27=ADVANCED_BREP_SHAPE_REPRESENTATION('2020_01_15__08-53-14-751',(#61,#64),#6);
#30=UNCERTAINTY_MEASURE_WITH_UNIT(LENGTH_MEASURE(1.0E-006),#32,'','');
#32= (CONVERSION_BASED_UNIT('MILLIMETRE',#67)LENGTH_UNIT()NAMED_UNIT(#70));
#33= (NAMED_UNIT(#72)PLANE_ANGLE_UNIT()SI_UNIT($,.RADIAN.));
#34= (NAMED_UNIT(#72)SOLID_ANGLE_UNIT()SI_UNIT($,.STERADIAN.));
#36=PRESENTATION_STYLE_ASSIGNMENT((#78));
#37=ADVANCED_FACE('',(#79),#80,.F.);
#38=PRESENTATION_STYLE_ASSIGNMENT((#81));
#39=ADVANCED_FACE('',(#82),#83,.T.);
#40=PRESENTATION_STYLE_ASSIGNMENT((#84));
#41=ADVANCED_FACE('',(#85),#86,.T.);
#42=PRESENTATION_STYLE_ASSIGNMENT((#87));
#43=ADVANCED_FACE('',(#88),#89,.T.);
#44=PRESENTATION_STYLE_ASSIGNMENT((#90));
#45=ADVANCED_FACE('',(#91),#92,.T.);
#46=PRESENTATION_STYLE_ASSIGNMENT((#93));
#47=ADVANCED_FACE('',(#94),#95,.T.);
#48=PRESENTATION_STYLE_ASSIGNMENT((#96));
#49=ADVANCED_FACE('',(#97),#98,.T.);
#50=PRESENTATION_STYLE_ASSIGNMENT((#99));
#51=ADVANCED_FACE('',(#100,#101),#102,.T.);
#52=PRESENTATION_STYLE_ASSIGNMENT((#103));
#53=ADVANCED_FACE('',(#104),#105,.T.);
#54=PRESENTATION_STYLE_ASSIGNMENT((#106));
#55=ADVANCED_FACE('',(#107,#108),#109,.T.);
#56=PRESENTATION_STYLE_ASSIGNMENT((#110));
#57=ADVANCED_FACE('',(#111),#112,.F.);
#58=PRESENTATION_STYLE_ASSIGNMENT((#113));
#59=ADVANCED_FACE('',(#114),#115,.T.);
#60=PRESENTATION_STYLE_ASSIGNMENT((#116));
#61=MANIFOLD_SOLID_BREP('2020_01_15__08-53-14-751',#117);
#62=PRODUCT('2020_01_15__08-53-14-751','','PART--DESC',(#118));
#63=PRODUCT_DEFINITION('','NONE',#119,#2);
#64=AXIS2_PLACEMENT_3D('',#120,#121,#122);
#67=LENGTH_MEASURE_WITH_UNIT(LENGTH_MEASURE(1.0),#123);
#70=DIMENSIONAL_EXPONENTS(1.0,0.0,0.0,0.0,0.0,0.0,0.0);
#72=DIMENSIONAL_EXPONENTS(0.0,0.0,0.0,0.0,0.0,0.0,0.0);
#78=SURFACE_STYLE_USAGE(.BOTH.,#124);
#79=FACE_OUTER_BOUND('',#125,.T.);
#80=CYLINDRICAL_SURFACE('',#126,3.50000000000006);
#81=SURFACE_STYLE_USAGE(.BOTH.,#127);
#82=FACE_OUTER_BOUND('',#128,.T.);
#83=CYLINDRICAL_SURFACE('',#129,4.75000000000007);
#84=SURFACE_STYLE_USAGE(.BOTH.,#130);
#85=FACE_OUTER_BOUND('',#131,.T.);
#86=TOROIDAL_SURFACE('',#132,7.10000000000003,0.400000000000002);
#87=SURFACE_STYLE_USAGE(.BOTH.,#133);
#88=FACE_OUTER_BOUND('',#134,.T.);
#89=TOROIDAL_SURFACE('',#135,5.09298172889754,3.0);
#90=SURFACE_STYLE_USAGE(.BOTH.,#136);
#91=FACE_OUTER_BOUND('',#137,.T.);
#92=SPHERICAL_SURFACE('',#138,70.000000000001);
#93=SURFACE_STYLE_USAGE(.BOTH.,#139);
#94=FACE_OUTER_BOUND('',#140,.T.);
#95=TOROIDAL_SURFACE('',#141,5.09298172889754,3.0);
#96=SURFACE_STYLE_USAGE(.BOTH.,#142);
#97=FACE_OUTER_BOUND('',#143,.T.);
#98=TOROIDAL_SURFACE('',#144,7.10000000000003,0.400000000000002);
#99=SURFACE_STYLE_USAGE(.BOTH.,#145);
#100=FACE_OUTER_BOUND('',#146,.T.);
#101=FACE_BOUND('',#147,.T.);
#102=PLANE('',#148);
#103=SURFACE_STYLE_USAGE(.BOTH.,#149);
#104=FACE_OUTER_BOUND('',#150,.T.);
#105=CYLINDRICAL_SURFACE('',#151,4.75000000000007);
#106=SURFACE_STYLE_USAGE(.BOTH.,#152);
#107=FACE_OUTER_BOUND('',#153,.T.);
#108=FACE_BOUND('',#154,.T.);
#109=PLANE('',#155);
#110=SURFACE_STYLE_USAGE(.BOTH.,#156);
#111=FACE_OUTER_BOUND('',#157,.T.);
#112=CYLINDRICAL_SURFACE('',#158,3.50000000000006);
#113=SURFACE_STYLE_USAGE(.BOTH.,#159);
#114=FACE_OUTER_BOUND('',#160,.T.);
#115=PLANE('',#161);
#116=SURFACE_STYLE_USAGE(.BOTH.,#162);
#117=CLOSED_SHELL('',(#37,#39,#41,#43,#45,#47,#49,#51,#53,#55,#57,#59));
#118=PRODUCT_CONTEXT('',#23,'mechanical');
#119=PRODUCT_DEFINITION_FORMATION_WITH_SPECIFIED_SOURCE(' ','NONE',#62,.NOT_KNOWN.);
#120=CARTESIAN_POINT('',(0.0,0.0,0.0));
#121=DIRECTION('',(0.0,0.0,1.0));
#122=DIRECTION('',(1.0,0.0,0.0));
#123= (NAMED_UNIT(#70)LENGTH_UNIT()SI_UNIT(.MILLI.,.METRE.));
#124=SURFACE_SIDE_STYLE('',(#164));
#125=EDGE_LOOP('',(#165,#166,#167,#168));
#126=AXIS2_PLACEMENT_3D('',#169,#170,#171);
#127=SURFACE_SIDE_STYLE('',(#172));
#128=EDGE_LOOP('',(#173,#174,#175,#176));
#129=AXIS2_PLACEMENT_3D('',#177,#178,#179);
#130=SURFACE_SIDE_STYLE('',(#180));
#131=EDGE_LOOP('',(#181,#182,#183,#184));
#132=AXIS2_PLACEMENT_3D('',#185,#186,#187);
#133=SURFACE_SIDE_STYLE('',(#188));
#134=EDGE_LOOP('',(#189,#190,#191,#192));
#135=AXIS2_PLACEMENT_3D('',#193,#194,#195);
#136=SURFACE_SIDE_STYLE('',(#196));
#137=EDGE_LOOP('',(#197,#198,#199));
#138=AXIS2_PLACEMENT_3D('',#200,#201,#202);
#139=SURFACE_SIDE_STYLE('',(#203));
#140=EDGE_LOOP('',(#204,#205,#206,#207,#208,#209));
#141=AXIS2_PLACEMENT_3D('',#210,#211,#212);
#142=SURFACE_SIDE_STYLE('',(#213));
#143=EDGE_LOOP('',(#214,#215,#216,#217,#218,#219));
#144=AXIS2_PLACEMENT_3D('',#220,#221,#222);
#145=SURFACE_SIDE_STYLE('',(#223));
#146=EDGE_LOOP('',(#224,#225,#226));
#147=EDGE_LOOP('',(#227,#228));
#148=AXIS2_PLACEMENT_3D('',#229,#230,#231);
#149=SURFACE_SIDE_STYLE('',(#232));
#150=EDGE_LOOP('',(#233,#234,#235,#236));
#151=AXIS2_PLACEMENT_3D('',#237,#238,#239);
#152=SURFACE_SIDE_STYLE('',(#240));
#153=EDGE_LOOP('',(#241,#242));
#154=EDGE_LOOP('',(#243,#244));
#155=AXIS2_PLACEMENT_3D('',#245,#246,#247);
#156=SURFACE_SIDE_STYLE('',(#248));
#157=EDGE_LOOP('',(#249,#250,#251,#252));
#158=AXIS2_PLACEMENT_3D('',#253,#254,#255);
#159=SURFACE_SIDE_STYLE('',(#256));
#160=EDGE_LOOP('',(#257,#258));
#161=AXIS2_PLACEMENT_3D('',#259,#260,#261);
#162=SURFACE_SIDE_STYLE('',(#262));
#164=SURFACE_STYLE_FILL_AREA(#263);
#165=ORIENTED_EDGE('',*,*,#264,.F.);
#166=ORIENTED_EDGE('',*,*,#265,.T.);
#167=ORIENTED_EDGE('',*,*,#266,.F.);
#168=ORIENTED_EDGE('',*,*,#267,.F.);
#169=CARTESIAN_POINT('',(2.842171E-014,-1.478532E-012,-2.717793695216));
#170=DIRECTION('',(0.0,2.220446E-016,1.0));
#171=DIRECTION('',(-1.0,0.0,0.0));
#172=SURFACE_STYLE_FILL_AREA(#268);
#173=ORIENTED_EDGE('',*,*,#269,.F.);
#174=ORIENTED_EDGE('',*,*,#270,.T.);
#175=ORIENTED_EDGE('',*,*,#271,.F.);
#176=ORIENTED_EDGE('',*,*,#272,.F.);
#177=CARTESIAN_POINT('',(2.842171E-014,-1.47854E-012,-2.75000000000266));
#178=DIRECTION('',(0.0,2.220446E-016,1.0));
#179=DIRECTION('',(-1.0,0.0,0.0));
#180=SURFACE_STYLE_FILL_AREA(#273);
#181=ORIENTED_EDGE('',*,*,#274,.F.);
#182=ORIENTED_EDGE('',*,*,#275,.T.);
#183=ORIENTED_EDGE('',*,*,#276,.F.);
#184=ORIENTED_EDGE('',*,*,#277,.F.);
#185=CARTESIAN_POINT('',(-1.421085E-014,-1.477929E-012,0.0));
#186=DIRECTION('',(1.421085E-014,0.0,-1.0));
#187=DIRECTION('',(0.0,1.0,0.0));
#188=SURFACE_STYLE_FILL_AREA(#278);
#189=ORIENTED_EDGE('',*,*,#279,.F.);
#190=ORIENTED_EDGE('',*,*,#280,.T.);
#191=ORIENTED_EDGE('',*,*,#281,.F.);
#192=ORIENTED_EDGE('',*,*,#275,.F.);
#193=CARTESIAN_POINT('',(1.421085E-014,-1.478296E-012,-1.65283927211957));
#194=DIRECTION('',(1.421085E-014,0.0,-1.0));
#195=DIRECTION('',(0.0,1.0,0.0));
#196=SURFACE_STYLE_FILL_AREA(#282);
#197=ORIENTED_EDGE('',*,*,#283,.F.);
#198=ORIENTED_EDGE('',*,*,#284,.F.);
#199=ORIENTED_EDGE('',*,*,#280,.F.);
#200=CARTESIAN_POINT('',(-1.136868E-013,-1.49313E-012,-68.4589882189727));
#201=DIRECTION('',(0.0,-1.0,0.0));
#202=DIRECTION('',(1.0,0.0,0.0));
#203=SURFACE_STYLE_FILL_AREA(#285);
#204=ORIENTED_EDGE('',*,*,#279,.T.);
#205=ORIENTED_EDGE('',*,*,#286,.F.);
#206=ORIENTED_EDGE('',*,*,#287,.F.);
#207=ORIENTED_EDGE('',*,*,#281,.T.);
#208=ORIENTED_EDGE('',*,*,#284,.T.);
#209=ORIENTED_EDGE('',*,*,#283,.T.);
#210=CARTESIAN_POINT('',(1.421085E-014,-1.478296E-012,-1.65283927211957));
#211=DIRECTION('',(1.421085E-014,0.0,-1.0));
#212=DIRECTION('',(0.0,1.0,0.0));
#213=SURFACE_STYLE_FILL_AREA(#288);
#214=ORIENTED_EDGE('',*,*,#274,.T.);
#215=ORIENTED_EDGE('',*,*,#289,.F.);
#216=ORIENTED_EDGE('',*,*,#290,.F.);
#217=ORIENTED_EDGE('',*,*,#276,.T.);
#218=ORIENTED_EDGE('',*,*,#287,.T.);
#219=ORIENTED_EDGE('',*,*,#286,.T.);
#220=CARTESIAN_POINT('',(-1.421085E-014,-1.477929E-012,0.0));
#221=DIRECTION('',(1.421085E-014,0.0,-1.0));
#222=DIRECTION('',(0.0,1.0,0.0));
#223=SURFACE_STYLE_FILL_AREA(#291);
#224=ORIENTED_EDGE('',*,*,#289,.T.);
#225=ORIENTED_EDGE('',*,*,#277,.T.);
#226=ORIENTED_EDGE('',*,*,#290,.T.);
#227=ORIENTED_EDGE('',*,*,#270,.F.);
#228=ORIENTED_EDGE('',*,*,#292,.F.);
#229=CARTESIAN_POINT('',(-6.12500000000004,-1.477929E-012,-2.721379E-012));
#230=DIRECTION('',(0.0,0.0,-1.0));
#231=DIRECTION('',(0.0,-1.0,0.0));
#232=SURFACE_STYLE_FILL_AREA(#293);
#233=ORIENTED_EDGE('',*,*,#269,.T.);
#234=ORIENTED_EDGE('',*,*,#294,.F.);
#235=ORIENTED_EDGE('',*,*,#271,.T.);
#236=ORIENTED_EDGE('',*,*,#292,.T.);
#237=CARTESIAN_POINT('',(2.842171E-014,-1.47854E-012,-2.75000000000266));
#238=DIRECTION('',(0.0,2.220446E-016,1.0));
#239=DIRECTION('',(-1.0,0.0,0.0));
#240=SURFACE_STYLE_FILL_AREA(#295);
#241=ORIENTED_EDGE('',*,*,#272,.T.);
#242=ORIENTED_EDGE('',*,*,#294,.T.);
#243=ORIENTED_EDGE('',*,*,#265,.F.);
#244=ORIENTED_EDGE('',*,*,#296,.F.);
#245=CARTESIAN_POINT('',(-4.12500000000004,-1.47915E-012,-5.50000000000273));
#246=DIRECTION('',(0.0,0.0,-1.0));
#247=DIRECTION('',(0.0,-1.0,0.0));
#248=SURFACE_STYLE_FILL_AREA(#297);
#249=ORIENTED_EDGE('',*,*,#264,.T.);
#250=ORIENTED_EDGE('',*,*,#298,.F.);
#251=ORIENTED_EDGE('',*,*,#266,.T.);
#252=ORIENTED_EDGE('',*,*,#296,.T.);
#253=CARTESIAN_POINT('',(2.842171E-014,-1.478532E-012,-2.717793695216));
#254=DIRECTION('',(0.0,2.220446E-016,1.0));
#255=DIRECTION('',(-1.0,0.0,0.0));
#256=SURFACE_STYLE_FILL_AREA(#299);
#257=ORIENTED_EDGE('',*,*,#267,.T.);
#258=ORIENTED_EDGE('',*,*,#298,.T.);
#259=CARTESIAN_POINT('',(-1.75000000000003,-1.477915E-012,0.064412609570617));
#260=DIRECTION('',(0.0,0.0,-1.0));
#261=DIRECTION('',(0.0,-1.0,0.0));
#262=SURFACE_STYLE_FILL_AREA(#300);
#263=FILL_AREA_STYLE('',(#301));
#264=EDGE_CURVE('',#302,#303,#304,.T.);
#265=EDGE_CURVE('',#302,#305,#306,.T.);
#266=EDGE_CURVE('',#307,#305,#308,.T.);
#267=EDGE_CURVE('',#303,#307,#309,.T.);
#268=FILL_AREA_STYLE('',(#310));
#269=EDGE_CURVE('',#311,#312,#313,.T.);
#270=EDGE_CURVE('',#311,#314,#315,.T.);
#271=EDGE_CURVE('',#316,#314,#317,.T.);
#272=EDGE_CURVE('',#312,#316,#318,.T.);
#273=FILL_AREA_STYLE('',(#319));
#274=EDGE_CURVE('',#320,#321,#322,.T.);
#275=EDGE_CURVE('',#320,#323,#324,.T.);
#276=EDGE_CURVE('',#325,#323,#326,.T.);
#277=EDGE_CURVE('',#321,#325,#327,.T.);
#278=FILL_AREA_STYLE('',(#328));
#279=EDGE_CURVE('',#329,#320,#330,.T.);
#280=EDGE_CURVE('',#329,#331,#332,.T.);
#281=EDGE_CURVE('',#323,#331,#333,.T.);
#282=FILL_AREA_STYLE('',(#334));
#283=EDGE_CURVE('',#335,#329,#336,.T.);
#284=EDGE_CURVE('',#331,#335,#337,.T.);
#285=FILL_AREA_STYLE('',(#338));
#286=EDGE_CURVE('',#339,#320,#340,.T.);
#287=EDGE_CURVE('',#323,#339,#341,.T.);
#288=FILL_AREA_STYLE('',(#342));
#289=EDGE_CURVE('',#343,#321,#344,.T.);
#290=EDGE_CURVE('',#325,#343,#345,.T.);
#291=FILL_AREA_STYLE('',(#346));
#292=EDGE_CURVE('',#314,#311,#347,.T.);
#293=FILL_AREA_STYLE('',(#348));
#294=EDGE_CURVE('',#316,#312,#349,.T.);
#295=FILL_AREA_STYLE('',(#350));
#296=EDGE_CURVE('',#305,#302,#351,.T.);
#297=FILL_AREA_STYLE('',(#352));
#298=EDGE_CURVE('',#307,#303,#353,.T.);
#299=FILL_AREA_STYLE('',(#354));
#300=FILL_AREA_STYLE('',(#355));
#301=FILL_AREA_STYLE_COLOUR('',#356);
#302=VERTEX_POINT('',#357);
#303=VERTEX_POINT('',#358);
#304=LINE('',#359,#360);
#305=VERTEX_POINT('',#361);
#306=CIRCLE('',#362,3.5000000000001);
#307=VERTEX_POINT('',#363);
#308=LINE('',#364,#365);
#309=CIRCLE('',#366,3.50000000000002);
#310=FILL_AREA_STYLE_COLOUR('',#367);
#311=VERTEX_POINT('',#368);
#312=VERTEX_POINT('',#369);
#313=LINE('',#370,#371);
#314=VERTEX_POINT('',#372);
#315=CIRCLE('',#373,4.75000000000004);
#316=VERTEX_POINT('',#374);
#317=LINE('',#375,#376);
#318=CIRCLE('',#377,4.75000000000011);
#319=FILL_AREA_STYLE_COLOUR('',#378);
#320=VERTEX_POINT('',#379);
#321=VERTEX_POINT('',#380);
#322=CIRCLE('',#381,0.400000000000002);
#323=VERTEX_POINT('',#382);
#324=CIRCLE('',#383,7.40877204170799);
#325=VERTEX_POINT('',#384);
#326=CIRCLE('',#385,0.400000000000002);
#327=CIRCLE('',#386,7.50000000000003);
#328=FILL_AREA_STYLE_COLOUR('',#387);
#329=VERTEX_POINT('',#388);
#330=CIRCLE('',#389,3.0);
#331=VERTEX_POINT('',#390);
#332=CIRCLE('',#391,5.32102568691072);
#333=CIRCLE('',#392,3.0);
#334=FILL_AREA_STYLE_COLOUR('',#393);
#335=VERTEX_POINT('',#394);
#336=CIRCLE('',#395,5.32102568691072);
#337=CIRCLE('',#396,5.32102568691072);
#338=FILL_AREA_STYLE_COLOUR('',#397);
#339=VERTEX_POINT('',#398);
#340=CIRCLE('',#399,7.40877204170799);
#341=CIRCLE('',#400,7.40877204170799);
#342=FILL_AREA_STYLE_COLOUR('',#401);
#343=VERTEX_POINT('',#402);
#344=CIRCLE('',#403,7.50000000000003);
#345=CIRCLE('',#404,7.50000000000003);
#346=FILL_AREA_STYLE_COLOUR('',#405);
#347=CIRCLE('',#406,4.75000000000004);
#348=FILL_AREA_STYLE_COLOUR('',#407);
#349=CIRCLE('',#408,4.75000000000011);
#350=FILL_AREA_STYLE_COLOUR('',#409);
#351=CIRCLE('',#410,3.5000000000001);
#352=FILL_AREA_STYLE_COLOUR('',#411);
#353=CIRCLE('',#412,3.50000000000002);
#354=FILL_AREA_STYLE_COLOUR('',#413);
#355=FILL_AREA_STYLE_COLOUR('',#414);
#356=COLOUR_RGB('',0.752941191196442,0.752941191196442,0.752941191196442);
#357=CARTESIAN_POINT('',(-3.50000000000003,-1.47915E-012,-5.50000000000272));
#358=CARTESIAN_POINT('',(-3.50000000000003,-1.477915E-012,0.06441260957061));
#359=CARTESIAN_POINT('',(-3.50000000000003,-1.4781033736203E-012,-2.717793695216));
#360=VECTOR('',#415,1.0);
#361=CARTESIAN_POINT('',(3.50000000000017,-1.47957840026577E-012,-5.50000000000267));
#362=AXIS2_PLACEMENT_3D('',#416,#417,#418);
#363=CARTESIAN_POINT('',(3.5,-1.47834285249364E-012,0.0644126095706601));
#364=CARTESIAN_POINT('',(3.50000000000009,-1.4789606263797E-012,-2.717793695216));
#365=VECTOR('',#419,1.0);
#366=AXIS2_PLACEMENT_3D('',#420,#421,#422);
#367=COLOUR_RGB('',0.752941191196442,0.752941191196442,0.752941191196442);
#368=CARTESIAN_POINT('',(-4.75000000000006,-1.477929E-012,-2.714273E-012));
#369=CARTESIAN_POINT('',(-4.75000000000004,-1.47915E-012,-5.50000000000274));
#370=CARTESIAN_POINT('',(-4.75000000000004,-1.47795829277041E-012,-2.75000000000266));
#371=VECTOR('',#423,1.0);
#372=CARTESIAN_POINT('',(4.75000000000003,-1.4785110845796E-012,-2.64321897702757E-012));
#373=AXIS2_PLACEMENT_3D('',#424,#425,#426);
#374=CARTESIAN_POINT('',(4.75000000000019,-1.4797323298796E-012,-5.50000000000267));
#375=CARTESIAN_POINT('',(4.7500000000001,-1.4791217072296E-012,-2.75000000000266));
#376=VECTOR('',#427,1.0);
#377=AXIS2_PLACEMENT_3D('',#428,#429,#430);
#378=COLOUR_RGB('',0.752941191196442,0.752941191196442,0.752941191196442);
#379=CARTESIAN_POINT('',(-1.37982909391899E-014,7.40877204170651,0.254282964941616));
#380=CARTESIAN_POINT('',(-1.51293350993233E-014,7.49999999999855,-2.62190269495477E-012));
#381=AXIS2_PLACEMENT_3D('',#431,#432,#433);
#382=CARTESIAN_POINT('',(-1.19836651458919E-014,-7.40877204170947,0.254282964941616));
#383=AXIS2_PLACEMENT_3D('',#434,#435,#436);
#384=CARTESIAN_POINT('',(-1.32923649006022E-014,-7.50000000000151,-2.62190269495477E-012));
#385=AXIS2_PLACEMENT_3D('',#437,#438,#439);
#386=AXIS2_PLACEMENT_3D('',#440,#441,#442);
#387=COLOUR_RGB('',0.752941191196442,0.752941191196442,0.752941191196442);
#388=CARTESIAN_POINT('',(-2.89499889804605E-014,5.32102568690924,1.33848082997812));
#389=AXIS2_PLACEMENT_3D('',#443,#444,#445);
#390=CARTESIAN_POINT('',(-2.76467135653292E-014,-5.32102568691219,1.33848082997812));
#391=AXIS2_PLACEMENT_3D('',#446,#447,#448);
#392=AXIS2_PLACEMENT_3D('',#449,#450,#451);
#393=COLOUR_RGB('',0.752941191196442,0.752941191196442,0.752941191196442);
#394=CARTESIAN_POINT('',(-5.32102568691075,-1.477632E-012,1.33848082997804));
#395=AXIS2_PLACEMENT_3D('',#452,#453,#454);
#396=AXIS2_PLACEMENT_3D('',#455,#456,#457);
#397=COLOUR_RGB('',0.752941191196442,0.752941191196442,0.752941191196442);
#398=CARTESIAN_POINT('',(-7.40877204170801,-1.477872E-012,0.25428296494151));
#399=AXIS2_PLACEMENT_3D('',#458,#459,#460);
#400=AXIS2_PLACEMENT_3D('',#461,#462,#463);
#401=COLOUR_RGB('',0.752941191196442,0.752941191196442,0.752941191196442);
#402=CARTESIAN_POINT('',(-7.50000000000004,-1.477929E-012,-2.728484E-012));
#403=AXIS2_PLACEMENT_3D('',#464,#465,#466);
#404=AXIS2_PLACEMENT_3D('',#467,#468,#469);
#405=COLOUR_RGB('',0.752941191196442,0.752941191196442,0.752941191196442);
#406=AXIS2_PLACEMENT_3D('',#470,#471,#472);
#407=COLOUR_RGB('',0.752941191196442,0.752941191196442,0.752941191196442);
#408=AXIS2_PLACEMENT_3D('',#473,#474,#475);
#409=COLOUR_RGB('',0.752941191196442,0.752941191196442,0.752941191196442);
#410=AXIS2_PLACEMENT_3D('',#476,#477,#478);
#411=COLOUR_RGB('',0.752941191196442,0.752941191196442,0.752941191196442);
#412=AXIS2_PLACEMENT_3D('',#479,#480,#481);
#413=COLOUR_RGB('',0.752941191196442,0.752941191196442,0.752941191196442);
#414=COLOUR_RGB('',0.752941012382507,0.752941012382507,0.752941012382507);
#415=DIRECTION('',(0.0,2.220446E-016,1.0));
#416=CARTESIAN_POINT('',(7.105427E-014,-1.47915E-012,-5.50000000000267));
#417=DIRECTION('',(0.0,0.0,-1.0));
#418=DIRECTION('',(-1.0,0.0,0.0));
#419=DIRECTION('',(0.0,-2.220446E-016,-1.0));
#420=CARTESIAN_POINT('',(-1.421085E-014,-1.477915E-012,0.06441260957066));
#421=DIRECTION('',(0.0,0.0,-1.0));
#422=DIRECTION('',(-1.0,0.0,0.0));
#423=DIRECTION('',(-0.0,-2.220446E-016,-1.0));
#424=CARTESIAN_POINT('',(-1.421085E-014,-1.477929E-012,-2.643219E-012));
#425=DIRECTION('',(0.0,0.0,-1.0));
#426=DIRECTION('',(-1.0,0.0,0.0));
#427=DIRECTION('',(0.0,2.220446E-016,1.0));
#428=CARTESIAN_POINT('',(7.105427E-014,-1.47915E-012,-5.50000000000267));
#429=DIRECTION('',(0.0,0.0,-1.0));
#430=DIRECTION('',(-1.0,0.0,0.0));
#431=CARTESIAN_POINT('',(-1.50803492273946E-014,7.09999999999855,-1.23563230956209E-029));
#432=DIRECTION('',(-1.0,-1.22464679914735E-016,-1.421085E-014));
#433=DIRECTION('',(-1.22464679914735E-016,1.0,-1.74032719656632E-030));
#434=CARTESIAN_POINT('',(-1.421085E-014,-1.477872E-012,0.254282964941616));
#435=DIRECTION('',(0.0,0.0,-1.0));
#436=DIRECTION('',(-1.0,0.0,0.0));
#437=CARTESIAN_POINT('',(-1.33413507726054E-014,-7.10000000000151,1.23563230956209E-029));
#438=DIRECTION('',(-1.0,-1.22464679914735E-016,-1.421085E-014));
#439=DIRECTION('',(1.22464679914735E-016,-1.0,1.74032719656632E-030));
#440=CARTESIAN_POINT('',(-1.421085E-014,-1.477929E-012,-2.621903E-012));
#441=DIRECTION('',(0.0,0.0,-1.0));
#442=DIRECTION('',(-1.0,0.0,0.0));
#443=CARTESIAN_POINT('',(1.3587139622759E-014,5.09298172889606,-1.65283927211957));
#444=DIRECTION('',(-1.0,-1.22464679914735E-016,-1.421085E-014));
#445=DIRECTION('',(-1.22464679914735E-016,1.0,-1.74032719656631E-030));
#446=CARTESIAN_POINT('',(-2.842171E-014,-1.477632E-012,1.33848082997812));
#447=DIRECTION('',(0.0,0.0,-1.0));
#448=DIRECTION('',(-1.0,0.0,0.0));
#449=CARTESIAN_POINT('',(1.4834560377241E-014,-5.09298172889902,-1.65283927211957));
#450=DIRECTION('',(-1.0,-1.22464679914735E-016,-1.421085E-014));
#451=DIRECTION('',(1.22464679914735E-016,-1.0,1.74032719656631E-030));
#452=CARTESIAN_POINT('',(-2.842171E-014,-1.477632E-012,1.33848082997812));
#453=DIRECTION('',(0.0,0.0,-1.0));
#454=DIRECTION('',(-1.0,0.0,0.0));
#455=CARTESIAN_POINT('',(-2.842171E-014,-1.477632E-012,1.33848082997812));
#456=DIRECTION('',(0.0,0.0,-1.0));
#457=DIRECTION('',(-1.0,0.0,0.0));
#458=CARTESIAN_POINT('',(-1.421085E-014,-1.477872E-012,0.254282964941616));
#459=DIRECTION('',(0.0,0.0,-1.0));
#460=DIRECTION('',(-1.0,0.0,0.0));
#461=CARTESIAN_POINT('',(-1.421085E-014,-1.477872E-012,0.254282964941616));
#462=DIRECTION('',(0.0,0.0,-1.0));
#463=DIRECTION('',(-1.0,0.0,0.0));
#464=CARTESIAN_POINT('',(-1.421085E-014,-1.477929E-012,-2.621903E-012));
#465=DIRECTION('',(0.0,0.0,-1.0));
#466=DIRECTION('',(-1.0,0.0,0.0));
#467=CARTESIAN_POINT('',(-1.421085E-014,-1.477929E-012,-2.621903E-012));
#468=DIRECTION('',(0.0,0.0,-1.0));
#469=DIRECTION('',(-1.0,0.0,0.0));
#470=CARTESIAN_POINT('',(-1.421085E-014,-1.477929E-012,-2.643219E-012));
#471=DIRECTION('',(0.0,0.0,-1.0));
#472=DIRECTION('',(-1.0,0.0,0.0));
#473=CARTESIAN_POINT('',(7.105427E-014,-1.47915E-012,-5.50000000000267));
#474=DIRECTION('',(0.0,0.0,-1.0));
#475=DIRECTION('',(-1.0,0.0,0.0));
#476=CARTESIAN_POINT('',(7.105427E-014,-1.47915E-012,-5.50000000000267));
#477=DIRECTION('',(0.0,0.0,-1.0));
#478=DIRECTION('',(-1.0,0.0,0.0));
#479=CARTESIAN_POINT('',(-1.421085E-014,-1.477915E-012,0.06441260957066));
#480=DIRECTION('',(0.0,0.0,-1.0));
#481=DIRECTION('',(-1.0,0.0,0.0));
ENDSEC;
END-ISO-10303-21;
