ISO-10303-21;
HEADER;
FILE_DESCRIPTION(('STEP AP214'),'1');
FILE_NAME('cctmp_8B689A9D-07B2-4B76-99EA-E73DDE12C192_2020_1_15_8_51_32_985..stp','2020-01-15T07:51:36',('Bosch Rexroth AG'),('CADClick - www.CADClick.com'),'Spatial InterOp 3D',' ','unknown authorization - (Healing Option Enabled)');
FILE_SCHEMA(('AUTOMOTIVE_DESIGN'));
ENDSEC;
DATA;
#1=MECHANICAL_DESIGN_GEOMETRIC_PRESENTATION_REPRESENTATION(' ',(#10,#11,#12,#13,#14,#15,#16,#17,#18,#19,#20),#6);
#2=PRODUCT_DEFINITION_CONTEXT('',#21,'design');
#3=APPLICATION_PROTOCOL_DEFINITION('INTERNATIONAL STANDARD','automotive_design',1994,#21);
#4=PRODUCT_CATEGORY_RELATIONSHIP('NONE','NONE',#22,#23);
#5=SHAPE_DEFINITION_REPRESENTATION(#24,#25);
#6= (GEOMETRIC_REPRESENTATION_CONTEXT(3)GLOBAL_UNCERTAINTY_ASSIGNED_CONTEXT((#28))GLOBAL_UNIT_ASSIGNED_CONTEXT((#30,#31,#32))REPRESENTATION_CONTEXT('NONE','WORKSPACE'));
#10=STYLED_ITEM('',(#34),#35);
#11=STYLED_ITEM('',(#36),#37);
#12=STYLED_ITEM('',(#38),#39);
#13=STYLED_ITEM('',(#40),#41);
#14=STYLED_ITEM('',(#42),#43);
#15=STYLED_ITEM('',(#44),#45);
#16=STYLED_ITEM('',(#46),#47);
#17=STYLED_ITEM('',(#48),#49);
#18=STYLED_ITEM('',(#50),#51);
#19=STYLED_ITEM('',(#52),#53);
#20=STYLED_ITEM('',(#54),#55);
#21=APPLICATION_CONTEXT(' ');
#22=PRODUCT_CATEGORY('part','NONE');
#23=PRODUCT_RELATED_PRODUCT_CATEGORY('detail',' ',(#56));
#24=PRODUCT_DEFINITION_SHAPE('NONE','NONE',#57);
#25=ADVANCED_BREP_SHAPE_REPRESENTATION('2020_01_15__08-51-32-751',(#55,#58),#6);
#28=UNCERTAINTY_MEASURE_WITH_UNIT(LENGTH_MEASURE(1.0E-006),#30,'','');
#30= (CONVERSION_BASED_UNIT('MILLIMETRE',#61)LENGTH_UNIT()NAMED_UNIT(#64));
#31= (NAMED_UNIT(#66)PLANE_ANGLE_UNIT()SI_UNIT($,.RADIAN.));
#32= (NAMED_UNIT(#66)SOLID_ANGLE_UNIT()SI_UNIT($,.STERADIAN.));
#34=PRESENTATION_STYLE_ASSIGNMENT((#72));
#35=ADVANCED_FACE('',(#73),#74,.F.);
#36=PRESENTATION_STYLE_ASSIGNMENT((#75));
#37=ADVANCED_FACE('',(#76),#77,.T.);
#38=PRESENTATION_STYLE_ASSIGNMENT((#78));
#39=ADVANCED_FACE('',(#79),#80,.T.);
#40=PRESENTATION_STYLE_ASSIGNMENT((#81));
#41=ADVANCED_FACE('',(#82),#83,.T.);
#42=PRESENTATION_STYLE_ASSIGNMENT((#84));
#43=ADVANCED_FACE('',(#85,#86),#87,.T.);
#44=PRESENTATION_STYLE_ASSIGNMENT((#88));
#45=ADVANCED_FACE('',(#89),#90,.T.);
#46=PRESENTATION_STYLE_ASSIGNMENT((#91));
#47=ADVANCED_FACE('',(#92,#93),#94,.T.);
#48=PRESENTATION_STYLE_ASSIGNMENT((#95));
#49=ADVANCED_FACE('',(#96),#97,.F.);
#50=PRESENTATION_STYLE_ASSIGNMENT((#98));
#51=ADVANCED_FACE('',(#99),#100,.T.);
#52=PRESENTATION_STYLE_ASSIGNMENT((#101));
#53=ADVANCED_FACE('',(#102),#103,.T.);
#54=PRESENTATION_STYLE_ASSIGNMENT((#104));
#55=MANIFOLD_SOLID_BREP('2020_01_15__08-51-32-751',#105);
#56=PRODUCT('2020_01_15__08-51-32-751','','PART--DESC',(#106));
#57=PRODUCT_DEFINITION('','NONE',#107,#2);
#58=AXIS2_PLACEMENT_3D('',#108,#109,#110);
#61=LENGTH_MEASURE_WITH_UNIT(LENGTH_MEASURE(1.0),#111);
#64=DIMENSIONAL_EXPONENTS(1.0,0.0,0.0,0.0,0.0,0.0,0.0);
#66=DIMENSIONAL_EXPONENTS(0.0,0.0,0.0,0.0,0.0,0.0,0.0);
#72=SURFACE_STYLE_USAGE(.BOTH.,#112);
#73=FACE_OUTER_BOUND('',#113,.T.);
#74=CYLINDRICAL_SURFACE('',#114,1.60000000000014);
#75=SURFACE_STYLE_USAGE(.BOTH.,#115);
#76=FACE_OUTER_BOUND('',#116,.T.);
#77=CYLINDRICAL_SURFACE('',#117,3.00000000000006);
#78=SURFACE_STYLE_USAGE(.BOTH.,#118);
#79=FACE_OUTER_BOUND('',#119,.T.);
#80=TOROIDAL_SURFACE('',#120,9.50089828911945,1.00000000000007);
#81=SURFACE_STYLE_USAGE(.BOTH.,#121);
#82=FACE_OUTER_BOUND('',#122,.T.);
#83=TOROIDAL_SURFACE('',#123,9.50089828911945,1.00000000000007);
#84=SURFACE_STYLE_USAGE(.BOTH.,#124);
#85=FACE_OUTER_BOUND('',#125,.T.);
#86=FACE_BOUND('',#126,.T.);
#87=PLANE('',#127);
#88=SURFACE_STYLE_USAGE(.BOTH.,#128);
#89=FACE_OUTER_BOUND('',#129,.T.);
#90=CYLINDRICAL_SURFACE('',#130,3.00000000000006);
#91=SURFACE_STYLE_USAGE(.BOTH.,#131);
#92=FACE_OUTER_BOUND('',#132,.T.);
#93=FACE_BOUND('',#133,.T.);
#94=PLANE('',#134);
#95=SURFACE_STYLE_USAGE(.BOTH.,#135);
#96=FACE_OUTER_BOUND('',#136,.T.);
#97=CYLINDRICAL_SURFACE('',#137,1.60000000000014);
#98=SURFACE_STYLE_USAGE(.BOTH.,#138);
#99=FACE_OUTER_BOUND('',#139,.T.);
#100=PLANE('',#140);
#101=SURFACE_STYLE_USAGE(.BOTH.,#141);
#102=FACE_OUTER_BOUND('',#142,.T.);
#103=SPHERICAL_SURFACE('',#143,55.0000000000053);
#104=SURFACE_STYLE_USAGE(.BOTH.,#144);
#105=CLOSED_SHELL('',(#35,#37,#39,#41,#43,#45,#47,#49,#51,#53));
#106=PRODUCT_CONTEXT('',#21,'mechanical');
#107=PRODUCT_DEFINITION_FORMATION_WITH_SPECIFIED_SOURCE(' ','NONE',#56,.NOT_KNOWN.);
#108=CARTESIAN_POINT('',(0.0,0.0,0.0));
#109=DIRECTION('',(0.0,0.0,1.0));
#110=DIRECTION('',(1.0,0.0,0.0));
#111= (NAMED_UNIT(#64)LENGTH_UNIT()SI_UNIT(.MILLI.,.METRE.));
#112=SURFACE_SIDE_STYLE('',(#146));
#113=EDGE_LOOP('',(#147,#148,#149,#150));
#114=AXIS2_PLACEMENT_3D('',#151,#152,#153);
#115=SURFACE_SIDE_STYLE('',(#154));
#116=EDGE_LOOP('',(#155,#156,#157,#158));
#117=AXIS2_PLACEMENT_3D('',#159,#160,#161);
#118=SURFACE_SIDE_STYLE('',(#162));
#119=EDGE_LOOP('',(#163,#164,#165,#166));
#120=AXIS2_PLACEMENT_3D('',#167,#168,#169);
#121=SURFACE_SIDE_STYLE('',(#170));
#122=EDGE_LOOP('',(#171,#172,#173,#174,#175,#176));
#123=AXIS2_PLACEMENT_3D('',#177,#178,#179);
#124=SURFACE_SIDE_STYLE('',(#180));
#125=EDGE_LOOP('',(#181,#182,#183));
#126=EDGE_LOOP('',(#184,#185));
#127=AXIS2_PLACEMENT_3D('',#186,#187,#188);
#128=SURFACE_SIDE_STYLE('',(#189));
#129=EDGE_LOOP('',(#190,#191,#192,#193));
#130=AXIS2_PLACEMENT_3D('',#194,#195,#196);
#131=SURFACE_SIDE_STYLE('',(#197));
#132=EDGE_LOOP('',(#198,#199));
#133=EDGE_LOOP('',(#200,#201));
#134=AXIS2_PLACEMENT_3D('',#202,#203,#204);
#135=SURFACE_SIDE_STYLE('',(#205));
#136=EDGE_LOOP('',(#206,#207,#208,#209));
#137=AXIS2_PLACEMENT_3D('',#210,#211,#212);
#138=SURFACE_SIDE_STYLE('',(#213));
#139=EDGE_LOOP('',(#214,#215));
#140=AXIS2_PLACEMENT_3D('',#216,#217,#218);
#141=SURFACE_SIDE_STYLE('',(#219));
#142=EDGE_LOOP('',(#220,#221,#222));
#143=AXIS2_PLACEMENT_3D('',#223,#224,#225);
#144=SURFACE_SIDE_STYLE('',(#226));
#146=SURFACE_STYLE_FILL_AREA(#227);
#147=ORIENTED_EDGE('',*,*,#228,.F.);
#148=ORIENTED_EDGE('',*,*,#229,.T.);
#149=ORIENTED_EDGE('',*,*,#230,.F.);
#150=ORIENTED_EDGE('',*,*,#231,.F.);
#151=CARTESIAN_POINT('',(0.0,-1.187939E-015,-5.35000000000162));
#152=DIRECTION('',(0.0,2.220446E-016,1.0));
#153=DIRECTION('',(-1.0,0.0,0.0));
#154=SURFACE_STYLE_FILL_AREA(#232);
#155=ORIENTED_EDGE('',*,*,#233,.F.);
#156=ORIENTED_EDGE('',*,*,#234,.T.);
#157=ORIENTED_EDGE('',*,*,#235,.F.);
#158=ORIENTED_EDGE('',*,*,#236,.F.);
#159=CARTESIAN_POINT('',(0.0,-1.221245E-015,-5.50000000000182));
#160=DIRECTION('',(0.0,2.220446E-016,1.0));
#161=DIRECTION('',(-1.0,0.0,0.0));
#162=SURFACE_STYLE_FILL_AREA(#237);
#163=ORIENTED_EDGE('',*,*,#238,.F.);
#164=ORIENTED_EDGE('',*,*,#239,.T.);
#165=ORIENTED_EDGE('',*,*,#240,.F.);
#166=ORIENTED_EDGE('',*,*,#241,.F.);
#167=CARTESIAN_POINT('',(0.0,-9.409483E-018,-0.042376542024726));
#168=DIRECTION('',(0.0,0.0,-1.0));
#169=DIRECTION('',(0.0,1.0,0.0));
#170=SURFACE_STYLE_FILL_AREA(#242);
#171=ORIENTED_EDGE('',*,*,#238,.T.);
#172=ORIENTED_EDGE('',*,*,#243,.F.);
#173=ORIENTED_EDGE('',*,*,#244,.F.);
#174=ORIENTED_EDGE('',*,*,#240,.T.);
#175=ORIENTED_EDGE('',*,*,#245,.T.);
#176=ORIENTED_EDGE('',*,*,#246,.T.);
#177=CARTESIAN_POINT('',(0.0,-9.409483E-018,-0.042376542024726));
#178=DIRECTION('',(0.0,0.0,-1.0));
#179=DIRECTION('',(0.0,1.0,0.0));
#180=SURFACE_STYLE_FILL_AREA(#247);
#181=ORIENTED_EDGE('',*,*,#243,.T.);
#182=ORIENTED_EDGE('',*,*,#241,.T.);
#183=ORIENTED_EDGE('',*,*,#244,.T.);
#184=ORIENTED_EDGE('',*,*,#234,.F.);
#185=ORIENTED_EDGE('',*,*,#248,.F.);
#186=CARTESIAN_POINT('',(-6.75000000000051,-3.029226E-028,-1.364242E-012));
#187=DIRECTION('',(0.0,0.0,-1.0));
#188=DIRECTION('',(0.0,-1.0,0.0));
#189=SURFACE_STYLE_FILL_AREA(#249);
#190=ORIENTED_EDGE('',*,*,#233,.T.);
#191=ORIENTED_EDGE('',*,*,#250,.F.);
#192=ORIENTED_EDGE('',*,*,#235,.T.);
#193=ORIENTED_EDGE('',*,*,#248,.T.);
#194=CARTESIAN_POINT('',(0.0,-1.221245E-015,-5.50000000000182));
#195=DIRECTION('',(0.0,2.220446E-016,1.0));
#196=DIRECTION('',(-1.0,0.0,0.0));
#197=SURFACE_STYLE_FILL_AREA(#251);
#198=ORIENTED_EDGE('',*,*,#236,.T.);
#199=ORIENTED_EDGE('',*,*,#250,.T.);
#200=ORIENTED_EDGE('',*,*,#229,.F.);
#201=ORIENTED_EDGE('',*,*,#252,.F.);
#202=CARTESIAN_POINT('',(-2.30000000000013,-2.442491E-015,-11.0000000000022));
#203=DIRECTION('',(0.0,0.0,-1.0));
#204=DIRECTION('',(0.0,-1.0,0.0));
#205=SURFACE_STYLE_FILL_AREA(#253);
#206=ORIENTED_EDGE('',*,*,#228,.T.);
#207=ORIENTED_EDGE('',*,*,#254,.F.);
#208=ORIENTED_EDGE('',*,*,#230,.T.);
#209=ORIENTED_EDGE('',*,*,#252,.T.);
#210=CARTESIAN_POINT('',(0.0,-1.187939E-015,-5.35000000000162));
#211=DIRECTION('',(0.0,2.220446E-016,1.0));
#212=DIRECTION('',(-1.0,0.0,0.0));
#213=SURFACE_STYLE_FILL_AREA(#255);
#214=ORIENTED_EDGE('',*,*,#231,.T.);
#215=ORIENTED_EDGE('',*,*,#254,.T.);
#216=CARTESIAN_POINT('',(-0.800000000000012,6.661338E-017,0.299999999998818));
#217=DIRECTION('',(0.0,0.0,-1.0));
#218=DIRECTION('',(0.0,-1.0,0.0));
#219=SURFACE_STYLE_FILL_AREA(#256);
#220=ORIENTED_EDGE('',*,*,#246,.F.);
#221=ORIENTED_EDGE('',*,*,#245,.F.);
#222=ORIENTED_EDGE('',*,*,#239,.F.);
#223=CARTESIAN_POINT('',(-6.252776E-013,-1.181277E-014,-53.2000000000061));
#224=DIRECTION('',(0.0,-1.0,0.0));
#225=DIRECTION('',(1.0,0.0,0.0));
#226=SURFACE_STYLE_FILL_AREA(#257);
#227=FILL_AREA_STYLE('',(#258));
#228=EDGE_CURVE('',#259,#260,#261,.T.);
#229=EDGE_CURVE('',#259,#262,#263,.T.);
#230=EDGE_CURVE('',#264,#262,#265,.T.);
#231=EDGE_CURVE('',#260,#264,#266,.T.);
#232=FILL_AREA_STYLE('',(#267));
#233=EDGE_CURVE('',#268,#269,#270,.T.);
#234=EDGE_CURVE('',#268,#271,#272,.T.);
#235=EDGE_CURVE('',#273,#271,#274,.T.);
#236=EDGE_CURVE('',#269,#273,#275,.T.);
#237=FILL_AREA_STYLE('',(#276));
#238=EDGE_CURVE('',#277,#278,#279,.T.);
#239=EDGE_CURVE('',#277,#280,#281,.T.);
#240=EDGE_CURVE('',#282,#280,#283,.T.);
#241=EDGE_CURVE('',#278,#282,#284,.T.);
#242=FILL_AREA_STYLE('',(#285));
#243=EDGE_CURVE('',#286,#278,#287,.T.);
#244=EDGE_CURVE('',#282,#286,#288,.T.);
#245=EDGE_CURVE('',#280,#289,#290,.T.);
#246=EDGE_CURVE('',#289,#277,#291,.T.);
#247=FILL_AREA_STYLE('',(#292));
#248=EDGE_CURVE('',#271,#268,#293,.T.);
#249=FILL_AREA_STYLE('',(#294));
#250=EDGE_CURVE('',#273,#269,#295,.T.);
#251=FILL_AREA_STYLE('',(#296));
#252=EDGE_CURVE('',#262,#259,#297,.T.);
#253=FILL_AREA_STYLE('',(#298));
#254=EDGE_CURVE('',#264,#260,#299,.T.);
#255=FILL_AREA_STYLE('',(#300));
#256=FILL_AREA_STYLE('',(#301));
#257=FILL_AREA_STYLE('',(#302));
#258=FILL_AREA_STYLE_COLOUR('',#303);
#259=VERTEX_POINT('',#304);
#260=VERTEX_POINT('',#305);
#261=LINE('',#306,#307);
#262=VERTEX_POINT('',#308);
#263=CIRCLE('',#309,1.60000000000019);
#264=VERTEX_POINT('',#310);
#265=LINE('',#311,#312);
#266=CIRCLE('',#313,1.60000000000008);
#267=FILL_AREA_STYLE_COLOUR('',#314);
#268=VERTEX_POINT('',#315);
#269=VERTEX_POINT('',#316);
#270=LINE('',#317,#318);
#271=VERTEX_POINT('',#319);
#272=CIRCLE('',#320,3.00000000000011);
#273=VERTEX_POINT('',#321);
#274=LINE('',#322,#323);
#275=CIRCLE('',#324,3.0);
#276=FILL_AREA_STYLE_COLOUR('',#325);
#277=VERTEX_POINT('',#326);
#278=VERTEX_POINT('',#327);
#279=CIRCLE('',#328,1.00000000000007);
#280=VERTEX_POINT('',#329);
#281=CIRCLE('',#330,9.67684276701476);
#282=VERTEX_POINT('',#331);
#283=CIRCLE('',#332,1.00000000000007);
#284=CIRCLE('',#333,10.5000000000009);
#285=FILL_AREA_STYLE_COLOUR('',#334);
#286=VERTEX_POINT('',#335);
#287=CIRCLE('',#336,10.5000000000009);
#288=CIRCLE('',#337,10.5000000000009);
#289=VERTEX_POINT('',#338);
#290=CIRCLE('',#339,9.67684276701476);
#291=CIRCLE('',#340,9.67684276701476);
#292=FILL_AREA_STYLE_COLOUR('',#341);
#293=CIRCLE('',#342,3.00000000000011);
#294=FILL_AREA_STYLE_COLOUR('',#343);
#295=CIRCLE('',#344,3.0);
#296=FILL_AREA_STYLE_COLOUR('',#345);
#297=CIRCLE('',#346,1.60000000000019);
#298=FILL_AREA_STYLE_COLOUR('',#347);
#299=CIRCLE('',#348,1.60000000000008);
#300=FILL_AREA_STYLE_COLOUR('',#349);
#301=FILL_AREA_STYLE_COLOUR('',#350);
#302=FILL_AREA_STYLE_COLOUR('',#351);
#303=COLOUR_RGB('',0.752941191196442,0.752941191196442,0.752941191196442);
#304=CARTESIAN_POINT('',(-1.60000000000019,-2.442491E-015,-11.000000000002));
#305=CARTESIAN_POINT('',(-1.60000000000008,6.661338E-017,0.299999999998818));
#306=CARTESIAN_POINT('',(-1.60000000000014,-9.91995512136407E-016,-5.35000000000162));
#307=VECTOR('',#352,1.0);
#308=CARTESIAN_POINT('',(1.60000000000019,-2.6384344778637E-015,-11.000000000002));
#309=AXIS2_PLACEMENT_3D('',#353,#354,#355);
#310=CARTESIAN_POINT('',(1.60000000000008,-1.2933049786349E-016,0.299999999998818));
#311=CARTESIAN_POINT('',(1.60000000000014,-1.38388248786359E-015,-5.35000000000162));
#312=VECTOR('',#356,1.0);
#313=AXIS2_PLACEMENT_3D('',#357,#358,#359);
#314=COLOUR_RGB('',0.752941191196442,0.752941191196442,0.752941191196442);
#315=CARTESIAN_POINT('',(-3.00000000000011,-3.281661E-028,-1.477929E-012));
#316=CARTESIAN_POINT('',(-3.0,-2.442491E-015,-11.0000000000023));
#317=CARTESIAN_POINT('',(-3.00000000000006,-8.53850960255787E-016,-5.50000000000182));
#318=VECTOR('',#360,1.0);
#319=CARTESIAN_POINT('',(3.00000000000011,-3.67393739744144E-016,-1.47792889038101E-012));
#320=AXIS2_PLACEMENT_3D('',#361,#362,#363);
#321=CARTESIAN_POINT('',(3.0,-2.80988433974431E-015,-11.0000000000023));
#322=CARTESIAN_POINT('',(3.00000000000006,-1.58863903974421E-015,-5.50000000000182));
#323=VECTOR('',#364,1.0);
#324=AXIS2_PLACEMENT_3D('',#365,#366,#367);
#325=COLOUR_RGB('',0.752941191196442,0.752941191196442,0.752941191196442);
#326=CARTESIAN_POINT('',(-1.18507145204768E-015,9.67684276701476,0.942023549756186));
#327=CARTESIAN_POINT('',(-1.28587913910483E-015,10.5000000000009,-1.36424205265939E-012));
#328=AXIS2_PLACEMENT_3D('',#368,#369,#370);
#329=CARTESIAN_POINT('',(1.18507145204768E-015,-9.67684276701476,0.942023549756186));
#330=AXIS2_PLACEMENT_3D('',#371,#372,#373);
#331=CARTESIAN_POINT('',(1.28587913910483E-015,-10.5000000000009,-1.36424205265939E-012));
#332=AXIS2_PLACEMENT_3D('',#374,#375,#376);
#333=AXIS2_PLACEMENT_3D('',#377,#378,#379);
#334=COLOUR_RGB('',0.752941191196442,0.752941191196442,0.752941191196442);
#335=CARTESIAN_POINT('',(-10.5000000000009,-3.029226E-028,-1.364242E-012));
#336=AXIS2_PLACEMENT_3D('',#380,#381,#382);
#337=AXIS2_PLACEMENT_3D('',#383,#384,#385);
#338=CARTESIAN_POINT('',(-9.67684276701476,2.091712E-016,0.942023549756186));
#339=AXIS2_PLACEMENT_3D('',#386,#387,#388);
#340=AXIS2_PLACEMENT_3D('',#389,#390,#391);
#341=COLOUR_RGB('',0.752941191196442,0.752941191196442,0.752941191196442);
#342=AXIS2_PLACEMENT_3D('',#392,#393,#394);
#343=COLOUR_RGB('',0.752941191196442,0.752941191196442,0.752941191196442);
#344=AXIS2_PLACEMENT_3D('',#395,#396,#397);
#345=COLOUR_RGB('',0.752941191196442,0.752941191196442,0.752941191196442);
#346=AXIS2_PLACEMENT_3D('',#398,#399,#400);
#347=COLOUR_RGB('',0.752941191196442,0.752941191196442,0.752941191196442);
#348=AXIS2_PLACEMENT_3D('',#401,#402,#403);
#349=COLOUR_RGB('',0.752941191196442,0.752941191196442,0.752941191196442);
#350=COLOUR_RGB('',0.752941191196442,0.752941191196442,0.752941191196442);
#351=COLOUR_RGB('',0.752941012382507,0.752941012382507,0.752941012382507);
#352=DIRECTION('',(0.0,2.220446E-016,1.0));
#353=CARTESIAN_POINT('',(0.0,-2.442491E-015,-11.000000000002));
#354=DIRECTION('',(0.0,0.0,-1.0));
#355=DIRECTION('',(-1.0,0.0,0.0));
#356=DIRECTION('',(0.0,-2.220446E-016,-1.0));
#357=CARTESIAN_POINT('',(0.0,6.661338E-017,0.299999999998818));
#358=DIRECTION('',(0.0,0.0,-1.0));
#359=DIRECTION('',(-1.0,0.0,0.0));
#360=DIRECTION('',(-0.0,-2.220446E-016,-1.0));
#361=CARTESIAN_POINT('',(0.0,-3.281661E-028,-1.477929E-012));
#362=DIRECTION('',(0.0,0.0,-1.0));
#363=DIRECTION('',(-1.0,0.0,0.0));
#364=DIRECTION('',(0.0,2.220446E-016,1.0));
#365=CARTESIAN_POINT('',(0.0,-2.442491E-015,-11.0000000000023));
#366=DIRECTION('',(0.0,0.0,-1.0));
#367=DIRECTION('',(-1.0,0.0,0.0));
#368=CARTESIAN_POINT('',(-1.16352446787947E-015,9.50089828911945,-0.042376542024726));
#369=DIRECTION('',(-1.0,-1.22464679914735E-016,-0.0));
#370=DIRECTION('',(-1.22464679914735E-016,1.0,0.0));
#371=CARTESIAN_POINT('',(0.0,2.091712E-016,0.942023549756186));
#372=DIRECTION('',(0.0,0.0,-1.0));
#373=DIRECTION('',(-1.0,0.0,0.0));
#374=CARTESIAN_POINT('',(1.16352446787947E-015,-9.50089828911945,-0.042376542024726));
#375=DIRECTION('',(-1.0,-1.22464679914735E-016,0.0));
#376=DIRECTION('',(1.22464679914735E-016,-1.0,0.0));
#377=CARTESIAN_POINT('',(0.0,-3.029226E-028,-1.364242E-012));
#378=DIRECTION('',(0.0,0.0,-1.0));
#379=DIRECTION('',(-1.0,0.0,0.0));
#380=CARTESIAN_POINT('',(0.0,-3.029226E-028,-1.364242E-012));
#381=DIRECTION('',(0.0,0.0,-1.0));
#382=DIRECTION('',(-1.0,0.0,0.0));
#383=CARTESIAN_POINT('',(0.0,-3.029226E-028,-1.364242E-012));
#384=DIRECTION('',(0.0,0.0,-1.0));
#385=DIRECTION('',(-1.0,0.0,0.0));
#386=CARTESIAN_POINT('',(0.0,2.091712E-016,0.942023549756186));
#387=DIRECTION('',(0.0,0.0,-1.0));
#388=DIRECTION('',(-1.0,0.0,0.0));
#389=CARTESIAN_POINT('',(0.0,2.091712E-016,0.942023549756186));
#390=DIRECTION('',(0.0,0.0,-1.0));
#391=DIRECTION('',(-1.0,0.0,0.0));
#392=CARTESIAN_POINT('',(0.0,-3.281661E-028,-1.477929E-012));
#393=DIRECTION('',(0.0,0.0,-1.0));
#394=DIRECTION('',(-1.0,0.0,0.0));
#395=CARTESIAN_POINT('',(0.0,-2.442491E-015,-11.0000000000023));
#396=DIRECTION('',(0.0,0.0,-1.0));
#397=DIRECTION('',(-1.0,0.0,0.0));
#398=CARTESIAN_POINT('',(0.0,-2.442491E-015,-11.000000000002));
#399=DIRECTION('',(0.0,0.0,-1.0));
#400=DIRECTION('',(-1.0,0.0,0.0));
#401=CARTESIAN_POINT('',(0.0,6.661338E-017,0.299999999998818));
#402=DIRECTION('',(0.0,0.0,-1.0));
#403=DIRECTION('',(-1.0,0.0,0.0));
ENDSEC;
END-ISO-10303-21;
